  0
SECTION
  2
HEADER
  9
$ACADVER
  1
AC1032
  9
$ACADMAINTVER
 90
       73
  9
$DWGCODEPAGE
  3
ANSI_1252
  9
$REQUIREDVERSIONS
160
                 0
  9
$INSBASE
 10
0.0
 20
0.0
 30
0.0
  9
$EXTMIN
 10
-1063.554950886742
 20
-1075.207920059199
 30
-1200.000009155273
  9
$EXTMAX
 10
706.9200000000003
 20
179.8321201135625
 30
264.9999947547913
  9
$LIMMIN
 10
0.0
 20
0.0
  9
$LIMMAX
 10
12.0
 20
9.0
  9
$ORTHOMODE
 70
     0
  9
$REGENMODE
 70
     1
  9
$FILLMODE
 70
     1
  9
$QTEXTMODE
 70
     0
  9
$MIRRTEXT
 70
     0
  9
$LTSCALE
 40
1.0
  9
$ATTMODE
 70
     1
  9
$TEXTSIZE
 40
0.2
  9
$TRACEWID
 40
0.05
  9
$TEXTSTYLE
  7
Standard
  9
$CLAYER
  8
0
  9
$CELTYPE
  6
ByLayer
  9
$CECOLOR
 62
   256
  9
$CELTSCALE
 40
1.0
  9
$DISPSILH
 70
     0
  9
$DIMSCALE
 40
1.0
  9
$DIMASZ
 40
0.18
  9
$DIMEXO
 40
0.0625
  9
$DIMDLI
 40
0.38
  9
$DIMRND
 40
0.0
  9
$DIMDLE
 40
0.0
  9
$DIMEXE
 40
0.18
  9
$DIMTP
 40
0.0
  9
$DIMTM
 40
0.0
  9
$DIMTXT
 40
0.18
  9
$DIMCEN
 40
0.09
  9
$DIMTSZ
 40
0.0
  9
$DIMTOL
 70
     0
  9
$DIMLIM
 70
     0
  9
$DIMTIH
 70
     1
  9
$DIMTOH
 70
     1
  9
$DIMSE1
 70
     0
  9
$DIMSE2
 70
     0
  9
$DIMTAD
 70
     0
  9
$DIMZIN
 70
     0
  9
$DIMBLK
  1

  9
$DIMASO
 70
     1
  9
$DIMSHO
 70
     1
  9
$DIMPOST
  1

  9
$DIMAPOST
  1

  9
$DIMALT
 70
     0
  9
$DIMALTD
 70
     2
  9
$DIMALTF
 40
25.4
  9
$DIMLFAC
 40
1.0
  9
$DIMTOFL
 70
     0
  9
$DIMTVP
 40
0.0
  9
$DIMTIX
 70
     0
  9
$DIMSOXD
 70
     0
  9
$DIMSAH
 70
     0
  9
$DIMBLK1
  1

  9
$DIMBLK2
  1

  9
$DIMSTYLE
  2
Standard
  9
$DIMCLRD
 70
     0
  9
$DIMCLRE
 70
     0
  9
$DIMCLRT
 70
     0
  9
$DIMTFAC
 40
1.0
  9
$DIMGAP
 40
0.09
  9
$DIMJUST
 70
     0
  9
$DIMSD1
 70
     0
  9
$DIMSD2
 70
     0
  9
$DIMTOLJ
 70
     1
  9
$DIMTZIN
 70
     0
  9
$DIMALTZ
 70
     0
  9
$DIMALTTZ
 70
     0
  9
$DIMUPT
 70
     0
  9
$DIMDEC
 70
     4
  9
$DIMTDEC
 70
     4
  9
$DIMALTU
 70
     2
  9
$DIMALTTD
 70
     2
  9
$DIMTXSTY
  7
Standard
  9
$DIMAUNIT
 70
     0
  9
$DIMADEC
 70
     0
  9
$DIMALTRND
 40
0.0
  9
$DIMAZIN
 70
     0
  9
$DIMDSEP
 70
    46
  9
$DIMATFIT
 70
     3
  9
$DIMFRAC
 70
     0
  9
$DIMLDRBLK
  1

  9
$DIMLUNIT
 70
     2
  9
$DIMLWD
 70
    -2
  9
$DIMLWE
 70
    -2
  9
$DIMTMOVE
 70
     0
  9
$DIMFXL
 40
1.0
  9
$DIMFXLON
 70
     0
  9
$DIMJOGANG
 40
0.7853981633974483
  9
$DIMTFILL
 70
     0
  9
$DIMTFILLCLR
 70
     0
  9
$DIMARCSYM
 70
     0
  9
$DIMLTYPE
  6

  9
$DIMLTEX1
  6

  9
$DIMLTEX2
  6

  9
$DIMTXTDIRECTION
 70
     0
  9
$LUNITS
 70
     2
  9
$LUPREC
 70
     4
  9
$SKETCHINC
 40
0.1
  9
$FILLETRAD
 40
0.0
  9
$AUNITS
 70
     0
  9
$AUPREC
 70
     0
  9
$MENU
  1
.
  9
$ELEVATION
 40
0.0
  9
$PELEVATION
 40
0.0
  9
$THICKNESS
 40
0.0
  9
$LIMCHECK
 70
     0
  9
$CHAMFERA
 40
0.0
  9
$CHAMFERB
 40
0.0
  9
$CHAMFERC
 40
0.0
  9
$CHAMFERD
 40
0.0
  9
$SKPOLY
 70
     0
  9
$TDCREATE
 40
2460158.390312500
  9
$TDUCREATE
 40
2460158.306979167
  9
$TDUPDATE
 40
2460158.390312500
  9
$TDUUPDATE
 40
2460158.306979167
  9
$TDINDWG
 40
0.0000000000
  9
$TDUSRTIMER
 40
0.0000000000
  9
$USRTIMER
 70
     1
  9
$ANGBASE
 50
0.0
  9
$ANGDIR
 70
     0
  9
$PDMODE
 70
     0
  9
$PDSIZE
 40
0.0
  9
$PLINEWID
 40
0.0
  9
$SPLFRAME
 70
     0
  9
$SPLINETYPE
 70
     6
  9
$SPLINESEGS
 70
     8
  9
$HANDSEED
  5
5F7
  9
$SURFTAB1
 70
     6
  9
$SURFTAB2
 70
     6
  9
$SURFTYPE
 70
     6
  9
$SURFU
 70
     6
  9
$SURFV
 70
     6
  9
$UCSBASE
  2

  9
$UCSNAME
  2

  9
$UCSORG
 10
0.0
 20
0.0
 30
0.0
  9
$UCSXDIR
 10
1.0
 20
0.0
 30
0.0
  9
$UCSYDIR
 10
0.0
 20
1.0
 30
0.0
  9
$UCSORTHOREF
  2

  9
$UCSORTHOVIEW
 70
     0
  9
$UCSORGTOP
 10
0.0
 20
0.0
 30
0.0
  9
$UCSORGBOTTOM
 10
0.0
 20
0.0
 30
0.0
  9
$UCSORGLEFT
 10
0.0
 20
0.0
 30
0.0
  9
$UCSORGRIGHT
 10
0.0
 20
0.0
 30
0.0
  9
$UCSORGFRONT
 10
0.0
 20
0.0
 30
0.0
  9
$UCSORGBACK
 10
0.0
 20
0.0
 30
0.0
  9
$PUCSBASE
  2

  9
$PUCSNAME
  2

  9
$PUCSORG
 10
0.0
 20
0.0
 30
0.0
  9
$PUCSXDIR
 10
1.0
 20
0.0
 30
0.0
  9
$PUCSYDIR
 10
0.0
 20
1.0
 30
0.0
  9
$PUCSORTHOREF
  2

  9
$PUCSORTHOVIEW
 70
     0
  9
$PUCSORGTOP
 10
0.0
 20
0.0
 30
0.0
  9
$PUCSORGBOTTOM
 10
0.0
 20
0.0
 30
0.0
  9
$PUCSORGLEFT
 10
0.0
 20
0.0
 30
0.0
  9
$PUCSORGRIGHT
 10
0.0
 20
0.0
 30
0.0
  9
$PUCSORGFRONT
 10
0.0
 20
0.0
 30
0.0
  9
$PUCSORGBACK
 10
0.0
 20
0.0
 30
0.0
  9
$USERI1
 70
     0
  9
$USERI2
 70
     0
  9
$USERI3
 70
     0
  9
$USERI4
 70
     0
  9
$USERI5
 70
     0
  9
$USERR1
 40
0.0
  9
$USERR2
 40
0.0
  9
$USERR3
 40
0.0
  9
$USERR4
 40
0.0
  9
$USERR5
 40
0.0
  9
$WORLDVIEW
 70
     1
  9
$SHADEDGE
 70
     3
  9
$SHADEDIF
 70
    70
  9
$TILEMODE
 70
     1
  9
$MAXACTVP
 70
    64
  9
$PINSBASE
 10
0.0
 20
0.0
 30
0.0
  9
$PLIMCHECK
 70
     0
  9
$PEXTMIN
 10
1.000000000000000E+20
 20
1.000000000000000E+20
 30
1.000000000000000E+20
  9
$PEXTMAX
 10
-1.000000000000000E+20
 20
-1.000000000000000E+20
 30
-1.000000000000000E+20
  9
$PLIMMIN
 10
0.0
 20
0.0
  9
$PLIMMAX
 10
12.0
 20
9.0
  9
$UNITMODE
 70
     0
  9
$VISRETAIN
 70
     1
  9
$PLINEGEN
 70
     0
  9
$PSLTSCALE
 70
     1
  9
$TREEDEPTH
 70
  3020
  9
$CMLSTYLE
  2
Standard
  9
$CMLJUST
 70
     0
  9
$CMLSCALE
 40
1.0
  9
$PROXYGRAPHICS
 70
     1
  9
$MEASUREMENT
 70
     1
  9
$CELWEIGHT
370
    -1
  9
$ENDCAPS
280
     0
  9
$JOINSTYLE
280
     0
  9
$LWDISPLAY
290
     0
  9
$INSUNITS
 70
     4
  9
$HYPERLINKBASE
  1

  9
$STYLESHEET
  1

  9
$XEDIT
290
     1
  9
$CEPSNTYPE
380
     0
  9
$PSTYLEMODE
290
     1
  9
$FINGERPRINTGUID
  2
{6EC9D016-BDA6-234E-B120-9EF1812343E7}
  9
$VERSIONGUID
  2
{A51802D2-7AAF-D242-96B2-04849C914C87}
  9
$EXTNAMES
290
     1
  9
$PSVPSCALE
 40
0.0
  9
$OLESTARTUP
290
     0
  9
$SORTENTS
280
   127
  9
$INDEXCTL
280
     0
  9
$HIDETEXT
280
     1
  9
$XCLIPFRAME
280
     2
  9
$HALOGAP
280
     0
  9
$OBSCOLOR
 70
   257
  9
$OBSLTYPE
280
     0
  9
$INTERSECTIONDISPLAY
280
     0
  9
$INTERSECTIONCOLOR
 70
   257
  9
$DIMASSOC
280
     2
  9
$PROJECTNAME
  1

  9
$CAMERADISPLAY
290
     0
  9
$LENSLENGTH
 40
50.0
  9
$CAMERAHEIGHT
 40
0.0
  9
$STEPSPERSEC
 40
2.0
  9
$STEPSIZE
 40
6.0
  9
$3DDWFPREC
 40
2.0
  9
$PSOLWIDTH
 40
0.25
  9
$PSOLHEIGHT
 40
4.0
  9
$LOFTANG1
 40
1.570796326794896
  9
$LOFTANG2
 40
1.570796326794896
  9
$LOFTMAG1
 40
0.0
  9
$LOFTMAG2
 40
0.0
  9
$LOFTPARAM
 70
     7
  9
$LOFTNORMALS
280
     1
  9
$LATITUDE
 40
37.795
  9
$LONGITUDE
 40
-122.394
  9
$NORTHDIRECTION
 40
0.0
  9
$TIMEZONE
 70
 -8000
  9
$LIGHTGLYPHDISPLAY
280
     1
  9
$TILEMODELIGHTSYNCH
280
     1
  9
$CMATERIAL
347
11
  9
$SOLIDHIST
280
     0
  9
$SHOWHIST
280
     1
  9
$DWFFRAME
280
     2
  9
$DGNFRAME
280
     0
  9
$REALWORLDSCALE
290
     1
  9
$INTERFERECOLOR
 62
     1
  9
$INTERFEREOBJVS
345
33
  9
$INTERFEREVPVS
346
30
  9
$CSHADOW
280
     0
  9
$SHADOWPLANELOCATION
 40
0.0
  0
ENDSEC
  0
SECTION
  2
CLASSES
  0
CLASS
  1
ACDBDICTIONARYWDFLT
  2
AcDbDictionaryWithDefault
  3
ObjectDBX Classes
 90
        0
 91
        1
280
     0
281
     0
  0
CLASS
  1
MATERIAL
  2
AcDbMaterial
  3
ObjectDBX Classes
 90
     1153
 91
        6
280
     0
281
     0
  0
CLASS
  1
VISUALSTYLE
  2
AcDbVisualStyle
  3
ObjectDBX Classes
 90
     4095
 91
       25
280
     0
281
     0
  0
CLASS
  1
SCALE
  2
AcDbScale
  3
ObjectDBX Classes
 90
     1153
 91
       17
280
     0
281
     0
  0
CLASS
  1
TABLESTYLE
  2
AcDbTableStyle
  3
ObjectDBX Classes
 90
     4095
 91
        1
280
     0
281
     0
  0
CLASS
  1
MLEADERSTYLE
  2
AcDbMLeaderStyle
  3
ACDB_MLEADERSTYLE_CLASS
 90
     4095
 91
        1
280
     0
281
     0
  0
CLASS
  1
ACDBSECTIONVIEWSTYLE
  2
AcDbSectionViewStyle
  3
ObjectDBX Classes
 90
     1025
 91
        1
280
     0
281
     0
  0
CLASS
  1
ACDBDETAILVIEWSTYLE
  2
AcDbDetailViewStyle
  3
ObjectDBX Classes
 90
     1025
 91
        1
280
     0
281
     0
  0
CLASS
  1
RASTERVARIABLES
  2
AcDbRasterVariables
  3
ISM
 90
        0
 91
        1
280
     0
281
     0
  0
CLASS
  1
DICTIONARYVAR
  2
AcDbDictionaryVar
  3
ObjectDBX Classes
 90
        0
 91
        5
280
     0
281
     0
  0
CLASS
  1
CELLSTYLEMAP
  2
AcDbCellStyleMap
  3
ObjectDBX Classes
 90
     1152
 91
        2
280
     0
281
     0
  0
ENDSEC
  0
SECTION
  2
TABLES
  0
TABLE
  2
VPORT
  5
8
330
0
100
AcDbSymbolTable
 70
     1
  0
VPORT
  5
57
330
8
100
AcDbSymbolTableRecord
100
AcDbViewportTableRecord
  2
*Active
 70
     0
 10
0.0
 20
0.0
 11
1.0
 21
1.0
 12
-178.3174754433708
 22
-447.6878999728182
 13
0.0
 23
0.0
 14
1.0
 24
1.0
 15
0.0
 25
0.0
 16
-1130.780662059513
 26
-3749.312188053096
 36
1515.142494805613
 17
-357.03006888267
 27
-11.15713489385294
 37
-749.1076849380735
 40
1255.040040172761
 41
1.410692005207283
 42
50.0
 43
0.0
 44
0.0
 50
0.0
 51
0.0
 71
     0
 72
  1000
 73
     1
 74
     0
 75
     1
 76
     0
 77
     0
 78
     0
281
     1
 65
     1
110
0.0
120
0.0
130
0.0
111
1.0
121
0.0
131
0.0
112
0.0
122
1.0
132
0.0
 79
     0
146
0.0
348
5A4
 60
     3
 61
     5
292
     1
282
     1
141
0.0
142
0.0
 63
   250
421
  3355443
  0
ENDTAB
  0
TABLE
  2
LTYPE
  5
5
330
0
100
AcDbSymbolTable
 70
     1
  0
LTYPE
  5
5B
330
5
100
AcDbSymbolTableRecord
100
AcDbLinetypeTableRecord
  2
ByBlock
 70
     0
  3

 72
    65
 73
     0
 40
0.0
  0
LTYPE
  5
5C
330
5
100
AcDbSymbolTableRecord
100
AcDbLinetypeTableRecord
  2
ByLayer
 70
     0
  3

 72
    65
 73
     0
 40
0.0
  0
LTYPE
  5
5D
330
5
100
AcDbSymbolTableRecord
100
AcDbLinetypeTableRecord
  2
Continuous
 70
     0
  3
Solid line
 72
    65
 73
     0
 40
0.0
  0
ENDTAB
  0
TABLE
  2
LAYER
  5
2
330
0
100
AcDbSymbolTable
 70
     2
  0
LAYER
  5
54
330
2
100
AcDbSymbolTableRecord
100
AcDbLayerTableRecord
  2
0
 70
     0
 62
     7
  6
Continuous
370
    -3
390
F
347
21
348
0
  0
LAYER
  5
84
330
2
100
AcDbSymbolTableRecord
100
AcDbLayerTableRecord
  2
M-EQPM
 70
     0
 62
     7
  6
Continuous
370
    30
390
F
347
21
348
0
  0
ENDTAB
  0
TABLE
  2
STYLE
  5
3
330
0
100
AcDbSymbolTable
 70
     3
  0
STYLE
  5
55
330
3
100
AcDbSymbolTableRecord
100
AcDbTextStyleTableRecord
  2
Standard
 70
     0
 40
0.0
 41
1.0
 50
0.0
 71
     0
 42
0.2
  3
txt
  4

  0
STYLE
  5
5A
330
3
100
AcDbSymbolTableRecord
100
AcDbTextStyleTableRecord
  2
Annotative
 70
     0
 40
0.0
 41
1.0
 50
0.0
 71
     0
 42
0.2
  3
txt
  4

1001
AcadAnnotative
1000
AnnotativeData
1002
{
1070
     1
1070
     1
1002
}
  0
STYLE
  5
5BA
330
3
100
AcDbSymbolTableRecord
100
AcDbTextStyleTableRecord
  2
Arial
 70
     0
 40
14.6304
 41
1.0
 50
0.0
 71
     0
 42
0.2
  3
arial.ttf
  4

1001
ACAD
1000
Arial
1071
       34
  0
ENDTAB
  0
TABLE
  2
VIEW
  5
6
330
0
100
AcDbSymbolTable
 70
     1
  0
VIEW
  5
5A5
330
6
100
AcDbSymbolTableRecord
100
AcDbViewTableRecord
  2
_3D_
 70
     0
 40
60960.0
 10
0.0
 20
0.0
 41
60960.0
 11
-1130.780662059513
 21
-3749.312188053096
 31
1515.142494805613
 12
-357.03006888267
 22
-11.15713489385294
 32
-749.1076849380735
 42
50.0
 43
0.0
 44
0.0
 50
0.0
 71
     0
281
     1
 72
     0
 73
     0
348
5A4
  0
ENDTAB
  0
TABLE
  2
UCS
  5
7
330
0
100
AcDbSymbolTable
 70
     0
  0
ENDTAB
  0
TABLE
  2
APPID
  5
9
330
0
100
AcDbSymbolTable
 70
     3
  0
APPID
  5
56
330
9
100
AcDbSymbolTableRecord
100
AcDbRegAppTableRecord
  2
ACAD
 70
     0
  0
APPID
  5
5E
330
9
100
AcDbSymbolTableRecord
100
AcDbRegAppTableRecord
  2
AcadAnnotative
 70
     0
  0
APPID
  5
78
330
9
100
AcDbSymbolTableRecord
100
AcDbRegAppTableRecord
  2
REVIT
 70
     0
  0
ENDTAB
  0
TABLE
  2
DIMSTYLE
  5
A
330
0
100
AcDbSymbolTable
 70
     2
100
AcDbDimStyleTable
 71
     0
  0
DIMSTYLE
105
58
330
A
100
AcDbSymbolTableRecord
100
AcDbDimStyleTableRecord
  2
Standard
 70
     0
340
55
  0
DIMSTYLE
105
59
330
A
100
AcDbSymbolTableRecord
100
AcDbDimStyleTableRecord
  2
Annotative
 70
     0
340
55
1001
AcadAnnotative
1000
AnnotativeData
1002
{
1070
     1
1070
     1
1002
}
  0
ENDTAB
  0
TABLE
  2
BLOCK_RECORD
  5
1
330
0
100
AcDbSymbolTable
 70
     1
  0
BLOCK_RECORD
  5
70
330
1
100
AcDbSymbolTableRecord
100
AcDbBlockTableRecord
  2
*Model_Space
340
73
 70
     0
280
     1
281
     0
  0
BLOCK_RECORD
  5
6C
330
1
100
AcDbSymbolTableRecord
100
AcDbBlockTableRecord
  2
*Paper_Space
340
6F
 70
     0
280
     1
281
     0
  0
BLOCK_RECORD
  5
74
330
1
100
AcDbSymbolTableRecord
100
AcDbBlockTableRecord
  2
*Paper_Space0
340
77
 70
     0
280
     1
281
     0
  0
ENDTAB
  0
ENDSEC
  0
SECTION
  2
BLOCKS
  0
BLOCK
  5
71
330
70
100
AcDbEntity
  8
0
100
AcDbBlockBegin
  2
*Model_Space
 70
     0
 10
0.0
 20
0.0
 30
0.0
  3
*Model_Space
  1

  0
ENDBLK
  5
72
330
70
100
AcDbEntity
  8
0
100
AcDbBlockEnd
  0
BLOCK
  5
6D
330
6C
100
AcDbEntity
 67
     1
  8
0
100
AcDbBlockBegin
  2
*Paper_Space
 70
     0
 10
0.0
 20
0.0
 30
0.0
  3
*Paper_Space
  1

  0
ENDBLK
  5
6E
330
6C
100
AcDbEntity
 67
     1
  8
0
100
AcDbBlockEnd
  0
BLOCK
  5
75
330
74
100
AcDbEntity
 67
     1
  8
0
100
AcDbBlockBegin
  2
*Paper_Space0
 70
     0
 10
0.0
 20
0.0
 30
0.0
  3
*Paper_Space0
  1

  0
ENDBLK
  5
76
330
74
100
AcDbEntity
 67
     1
  8
0
100
AcDbBlockEnd
  0
ENDSEC
  0
SECTION
  2
ENTITIES
  0
POLYLINE
  5
85
330
70
100
AcDbEntity
  8
M-EQPM
 62
   251
420
  4674641
100
AcDbPolyFaceMesh
 66
     1
 10
0.0
 20
0.0
 30
0.0
 70
    64
 71
     4
 72
     1
1001
REVIT
1002
{
1070
     1
1000
3483
1002
}
1002
{
1070
     4
1000
3251
1002
}
1002
{
1070
     2
1000
-2001140
1002
}
  0
VERTEX
  5
86
330
85
100
AcDbEntity
  8
M-EQPM
 62
   251
420
  4674641
100
AcDbVertex
100
AcDbPolyFaceMeshVertex
 10
-569.99998254776
 20
0.0
 30
261.9999961853027
 70
   192
  0
VERTEX
  5
87
330
85
100
AcDbEntity
  8
M-EQPM
 62
   251
420
  4674641
100
AcDbVertex
100
AcDbPolyFaceMeshVertex
 10
-569.99998254776
 20
-556.000001335144
 30
261.9999961853027
 70
   192
  0
VERTEX
  5
88
330
85
100
AcDbEntity
  8
M-EQPM
 62
   251
420
  4674641
100
AcDbVertex
100
AcDbPolyFaceMeshVertex
 10
569.99998254776
 20
-556.000001335144
 30
261.9999961853027
 70
   192
  0
VERTEX
  5
89
330
85
100
AcDbEntity
  8
M-EQPM
 62
   251
420
  4674641
100
AcDbVertex
100
AcDbPolyFaceMeshVertex
 10
569.99998254776
 20
0.0
 30
261.9999961853027
 70
   192
  0
VERTEX
  5
8A
330
85
100
AcDbEntity
  8
M-EQPM
 62
   251
420
  4674641
100
AcDbFaceRecord
 10
0.0
 20
0.0
 30
0.0
 70
   128
 71
     1
 72
     2
 73
     3
 74
     4
  0
SEQEND
  5
8B
330
85
100
AcDbEntity
  8
M-EQPM
 62
   251
420
  4674641
  0
POLYLINE
  5
8C
330
70
100
AcDbEntity
  8
M-EQPM
 62
   251
420
  4674641
100
AcDbPolyFaceMesh
 66
     1
 10
0.0
 20
0.0
 30
0.0
 70
    64
 71
     4
 72
     1
1001
REVIT
1002
{
1070
     1
1000
3483
1002
}
1002
{
1070
     4
1000
3251
1002
}
1002
{
1070
     2
1000
-2001140
1002
}
  0
VERTEX
  5
8D
330
8C
100
AcDbEntity
  8
M-EQPM
 62
   251
420
  4674641
100
AcDbVertex
100
AcDbPolyFaceMeshVertex
 10
569.99998254776
 20
-556.000001335144
 30
14.49999952018261
 70
   192
  0
VERTEX
  5
8E
330
8C
100
AcDbEntity
  8
M-EQPM
 62
   251
420
  4674641
100
AcDbVertex
100
AcDbPolyFaceMeshVertex
 10
-569.99998254776
 20
-556.000001335144
 30
14.49999952018261
 70
   192
  0
VERTEX
  5
8F
330
8C
100
AcDbEntity
  8
M-EQPM
 62
   251
420
  4674641
100
AcDbVertex
100
AcDbPolyFaceMeshVertex
 10
-569.99998254776
 20
0.0
 30
14.49999952018261
 70
   192
  0
VERTEX
  5
90
330
8C
100
AcDbEntity
  8
M-EQPM
 62
   251
420
  4674641
100
AcDbVertex
100
AcDbPolyFaceMeshVertex
 10
569.99998254776
 20
0.0
 30
14.49999952018261
 70
   192
  0
VERTEX
  5
91
330
8C
100
AcDbEntity
  8
M-EQPM
 62
   251
420
  4674641
100
AcDbFaceRecord
 10
0.0
 20
0.0
 30
0.0
 70
   128
 71
     1
 72
     2
 73
     3
 74
     4
  0
SEQEND
  5
92
330
8C
100
AcDbEntity
  8
M-EQPM
 62
   251
420
  4674641
  0
POLYLINE
  5
93
330
70
100
AcDbEntity
  8
M-EQPM
 62
   251
420
  4674641
100
AcDbPolyFaceMesh
 66
     1
 10
0.0
 20
0.0
 30
0.0
 70
    64
 71
     4
 72
     1
1001
REVIT
1002
{
1070
     1
1000
3483
1002
}
1002
{
1070
     4
1000
3251
1002
}
1002
{
1070
     2
1000
-2001140
1002
}
  0
VERTEX
  5
94
330
93
100
AcDbEntity
  8
M-EQPM
 62
   251
420
  4674641
100
AcDbVertex
100
AcDbPolyFaceMeshVertex
 10
569.99998254776
 20
0.0
 30
261.9999961853027
 70
   192
  0
VERTEX
  5
95
330
93
100
AcDbEntity
  8
M-EQPM
 62
   251
420
  4674641
100
AcDbVertex
100
AcDbPolyFaceMeshVertex
 10
569.99998254776
 20
0.0
 30
14.49999952018261
 70
   192
  0
VERTEX
  5
96
330
93
100
AcDbEntity
  8
M-EQPM
 62
   251
420
  4674641
100
AcDbVertex
100
AcDbPolyFaceMeshVertex
 10
-569.99998254776
 20
0.0
 30
14.49999952018261
 70
   192
  0
VERTEX
  5
97
330
93
100
AcDbEntity
  8
M-EQPM
 62
   251
420
  4674641
100
AcDbVertex
100
AcDbPolyFaceMeshVertex
 10
-569.99998254776
 20
0.0
 30
261.9999961853027
 70
   192
  0
VERTEX
  5
98
330
93
100
AcDbEntity
  8
M-EQPM
 62
   251
420
  4674641
100
AcDbFaceRecord
 10
0.0
 20
0.0
 30
0.0
 70
   128
 71
     1
 72
     2
 73
     3
 74
     4
  0
SEQEND
  5
99
330
93
100
AcDbEntity
  8
M-EQPM
 62
   251
420
  4674641
  0
POLYLINE
  5
9A
330
70
100
AcDbEntity
  8
M-EQPM
 62
   251
420
  4674641
100
AcDbPolyFaceMesh
 66
     1
 10
0.0
 20
0.0
 30
0.0
 70
    64
 71
     4
 72
     1
1001
REVIT
1002
{
1070
     1
1000
3483
1002
}
1002
{
1070
     4
1000
3251
1002
}
1002
{
1070
     2
1000
-2001140
1002
}
  0
VERTEX
  5
9B
330
9A
100
AcDbEntity
  8
M-EQPM
 62
   251
420
  4674641
100
AcDbVertex
100
AcDbPolyFaceMeshVertex
 10
-569.99998254776
 20
0.0
 30
261.9999961853027
 70
   192
  0
VERTEX
  5
9C
330
9A
100
AcDbEntity
  8
M-EQPM
 62
   251
420
  4674641
100
AcDbVertex
100
AcDbPolyFaceMeshVertex
 10
-569.99998254776
 20
0.0
 30
14.49999952018261
 70
   192
  0
VERTEX
  5
9D
330
9A
100
AcDbEntity
  8
M-EQPM
 62
   251
420
  4674641
100
AcDbVertex
100
AcDbPolyFaceMeshVertex
 10
-569.99998254776
 20
-556.000001335144
 30
14.49999952018261
 70
   192
  0
VERTEX
  5
9E
330
9A
100
AcDbEntity
  8
M-EQPM
 62
   251
420
  4674641
100
AcDbVertex
100
AcDbPolyFaceMeshVertex
 10
-569.99998254776
 20
-556.000001335144
 30
261.9999961853027
 70
   192
  0
VERTEX
  5
9F
330
9A
100
AcDbEntity
  8
M-EQPM
 62
   251
420
  4674641
100
AcDbFaceRecord
 10
0.0
 20
0.0
 30
0.0
 70
   128
 71
     1
 72
     2
 73
     3
 74
     4
  0
SEQEND
  5
A0
330
9A
100
AcDbEntity
  8
M-EQPM
 62
   251
420
  4674641
  0
POLYLINE
  5
A1
330
70
100
AcDbEntity
  8
M-EQPM
 62
   251
420
  4674641
100
AcDbPolyFaceMesh
 66
     1
 10
0.0
 20
0.0
 30
0.0
 70
    64
 71
     4
 72
     1
1001
REVIT
1002
{
1070
     1
1000
3483
1002
}
1002
{
1070
     4
1000
3251
1002
}
1002
{
1070
     2
1000
-2001140
1002
}
  0
VERTEX
  5
A2
330
A1
100
AcDbEntity
  8
M-EQPM
 62
   251
420
  4674641
100
AcDbVertex
100
AcDbPolyFaceMeshVertex
 10
-569.99998254776
 20
-556.000001335144
 30
261.9999961853027
 70
   192
  0
VERTEX
  5
A3
330
A1
100
AcDbEntity
  8
M-EQPM
 62
   251
420
  4674641
100
AcDbVertex
100
AcDbPolyFaceMeshVertex
 10
-569.99998254776
 20
-556.000001335144
 30
14.49999952018261
 70
   192
  0
VERTEX
  5
A4
330
A1
100
AcDbEntity
  8
M-EQPM
 62
   251
420
  4674641
100
AcDbVertex
100
AcDbPolyFaceMeshVertex
 10
569.99998254776
 20
-556.000001335144
 30
14.49999952018261
 70
   192
  0
VERTEX
  5
A5
330
A1
100
AcDbEntity
  8
M-EQPM
 62
   251
420
  4674641
100
AcDbVertex
100
AcDbPolyFaceMeshVertex
 10
569.99998254776
 20
-556.000001335144
 30
261.9999961853027
 70
   192
  0
VERTEX
  5
A6
330
A1
100
AcDbEntity
  8
M-EQPM
 62
   251
420
  4674641
100
AcDbFaceRecord
 10
0.0
 20
0.0
 30
0.0
 70
   128
 71
     1
 72
     2
 73
     3
 74
     4
  0
SEQEND
  5
A7
330
A1
100
AcDbEntity
  8
M-EQPM
 62
   251
420
  4674641
  0
POLYLINE
  5
A8
330
70
100
AcDbEntity
  8
M-EQPM
 62
   251
420
  4674641
100
AcDbPolyFaceMesh
 66
     1
 10
0.0
 20
0.0
 30
0.0
 70
    64
 71
     4
 72
     1
1001
REVIT
1002
{
1070
     1
1000
3483
1002
}
1002
{
1070
     4
1000
3251
1002
}
1002
{
1070
     2
1000
-2001140
1002
}
  0
VERTEX
  5
A9
330
A8
100
AcDbEntity
  8
M-EQPM
 62
   251
420
  4674641
100
AcDbVertex
100
AcDbPolyFaceMeshVertex
 10
569.99998254776
 20
-556.000001335144
 30
261.9999961853027
 70
   192
  0
VERTEX
  5
AA
330
A8
100
AcDbEntity
  8
M-EQPM
 62
   251
420
  4674641
100
AcDbVertex
100
AcDbPolyFaceMeshVertex
 10
569.99998254776
 20
-556.000001335144
 30
14.49999952018261
 70
   192
  0
VERTEX
  5
AB
330
A8
100
AcDbEntity
  8
M-EQPM
 62
   251
420
  4674641
100
AcDbVertex
100
AcDbPolyFaceMeshVertex
 10
569.99998254776
 20
0.0
 30
14.49999952018261
 70
   192
  0
VERTEX
  5
AC
330
A8
100
AcDbEntity
  8
M-EQPM
 62
   251
420
  4674641
100
AcDbVertex
100
AcDbPolyFaceMeshVertex
 10
569.99998254776
 20
0.0
 30
261.9999961853027
 70
   192
  0
VERTEX
  5
AD
330
A8
100
AcDbEntity
  8
M-EQPM
 62
   251
420
  4674641
100
AcDbFaceRecord
 10
0.0
 20
0.0
 30
0.0
 70
   128
 71
     1
 72
     2
 73
     3
 74
     4
  0
SEQEND
  5
AE
330
A8
100
AcDbEntity
  8
M-EQPM
 62
   251
420
  4674641
  0
POLYLINE
  5
AF
330
70
100
AcDbEntity
  8
M-EQPM
 62
     7
420
 16777215
100
AcDbPolyFaceMesh
 66
     1
 10
0.0
 20
0.0
 30
0.0
 70
    64
 71
     8
 72
     3
1001
REVIT
1002
{
1070
     1
1000
4829
1002
}
1002
{
1070
     4
1000
3254
1002
}
1002
{
1070
     2
1000
-2001140
1002
}
  0
VERTEX
  5
B0
330
AF
100
AcDbEntity
  8
M-EQPM
 62
     7
420
 16777215
100
AcDbVertex
100
AcDbPolyFaceMeshVertex
 10
-585.0000117301942
 20
-570.9999941825866
 30
246.5007060527802
 70
   192
  0
VERTEX
  5
B1
330
AF
100
AcDbEntity
  8
M-EQPM
 62
     7
420
 16777215
100
AcDbVertex
100
AcDbPolyFaceMeshVertex
 10
585.0000117301942
 20
-570.9999941825866
 30
246.5007060527802
 70
   192
  0
VERTEX
  5
B2
330
AF
100
AcDbEntity
  8
M-EQPM
 62
     7
420
 16777215
100
AcDbVertex
100
AcDbPolyFaceMeshVertex
 10
585.0000117301942
 20
0.0
 30
246.5007060527802
 70
   192
  0
VERTEX
  5
B3
330
AF
100
AcDbEntity
  8
M-EQPM
 62
     7
420
 16777215
100
AcDbVertex
100
AcDbPolyFaceMeshVertex
 10
569.99998254776
 20
0.0
 30
246.5007060527802
 70
   192
  0
VERTEX
  5
B4
330
AF
100
AcDbEntity
  8
M-EQPM
 62
     7
420
 16777215
100
AcDbVertex
100
AcDbPolyFaceMeshVertex
 10
569.99998254776
 20
-556.000001335144
 30
246.5007060527802
 70
   192
  0
VERTEX
  5
B5
330
AF
100
AcDbEntity
  8
M-EQPM
 62
     7
420
 16777215
100
AcDbVertex
100
AcDbPolyFaceMeshVertex
 10
-569.99998254776
 20
-556.000001335144
 30
246.5007060527802
 70
   192
  0
VERTEX
  5
B6
330
AF
100
AcDbEntity
  8
M-EQPM
 62
     7
420
 16777215
100
AcDbVertex
100
AcDbPolyFaceMeshVertex
 10
-569.99998254776
 20
0.0
 30
246.5007060527802
 70
   192
  0
VERTEX
  5
B7
330
AF
100
AcDbEntity
  8
M-EQPM
 62
     7
420
 16777215
100
AcDbVertex
100
AcDbPolyFaceMeshVertex
 10
-585.0000117301942
 20
0.0
 30
246.5007060527802
 70
   192
  0
VERTEX
  5
B8
330
AF
100
AcDbEntity
  8
M-EQPM
 62
     7
420
 16777215
100
AcDbFaceRecord
 10
0.0
 20
0.0
 30
0.0
 70
   128
 71
     6
 72
     7
 73
     8
 74
    -1
  0
VERTEX
  5
B9
330
AF
100
AcDbEntity
  8
M-EQPM
 62
     7
420
 16777215
100
AcDbFaceRecord
 10
0.0
 20
0.0
 30
0.0
 70
   128
 71
     3
 72
     4
 73
    -5
 74
     2
  0
VERTEX
  5
BA
330
AF
100
AcDbEntity
  8
M-EQPM
 62
     7
420
 16777215
100
AcDbFaceRecord
 10
0.0
 20
0.0
 30
0.0
 70
   128
 71
     5
 72
    -6
 73
     1
 74
    -2
  0
SEQEND
  5
BB
330
AF
100
AcDbEntity
  8
M-EQPM
 62
     7
420
 16777215
  0
POLYLINE
  5
BC
330
70
100
AcDbEntity
  8
M-EQPM
 62
     7
420
 16777215
100
AcDbPolyFaceMesh
 66
     1
 10
0.0
 20
0.0
 30
0.0
 70
    64
 71
     8
 72
     3
1001
REVIT
1002
{
1070
     1
1000
4829
1002
}
1002
{
1070
     4
1000
3254
1002
}
1002
{
1070
     2
1000
-2001140
1002
}
  0
VERTEX
  5
BD
330
BC
100
AcDbEntity
  8
M-EQPM
 62
     7
420
 16777215
100
AcDbVertex
100
AcDbPolyFaceMeshVertex
 10
-585.0000117301942
 20
-570.9999941825866
 30
20.74660111069679
 70
   192
  0
VERTEX
  5
BE
330
BC
100
AcDbEntity
  8
M-EQPM
 62
     7
420
 16777215
100
AcDbVertex
100
AcDbPolyFaceMeshVertex
 10
-585.0000117301942
 20
0.0
 30
20.74660111069679
 70
   192
  0
VERTEX
  5
BF
330
BC
100
AcDbEntity
  8
M-EQPM
 62
     7
420
 16777215
100
AcDbVertex
100
AcDbPolyFaceMeshVertex
 10
-569.99998254776
 20
0.0
 30
20.74660111069679
 70
   192
  0
VERTEX
  5
C0
330
BC
100
AcDbEntity
  8
M-EQPM
 62
     7
420
 16777215
100
AcDbVertex
100
AcDbPolyFaceMeshVertex
 10
-569.99998254776
 20
-556.000001335144
 30
20.74660111069679
 70
   192
  0
VERTEX
  5
C1
330
BC
100
AcDbEntity
  8
M-EQPM
 62
     7
420
 16777215
100
AcDbVertex
100
AcDbPolyFaceMeshVertex
 10
569.99998254776
 20
-556.000001335144
 30
20.74660111069679
 70
   192
  0
VERTEX
  5
C2
330
BC
100
AcDbEntity
  8
M-EQPM
 62
     7
420
 16777215
100
AcDbVertex
100
AcDbPolyFaceMeshVertex
 10
569.99998254776
 20
0.0
 30
20.74660111069679
 70
   192
  0
VERTEX
  5
C3
330
BC
100
AcDbEntity
  8
M-EQPM
 62
     7
420
 16777215
100
AcDbVertex
100
AcDbPolyFaceMeshVertex
 10
585.0000117301942
 20
0.0
 30
20.74660111069679
 70
   192
  0
VERTEX
  5
C4
330
BC
100
AcDbEntity
  8
M-EQPM
 62
     7
420
 16777215
100
AcDbVertex
100
AcDbPolyFaceMeshVertex
 10
585.0000117301942
 20
-570.9999941825866
 30
20.74660111069679
 70
   192
  0
VERTEX
  5
C5
330
BC
100
AcDbEntity
  8
M-EQPM
 62
     7
420
 16777215
100
AcDbFaceRecord
 10
0.0
 20
0.0
 30
0.0
 70
   128
 71
    -1
 72
     4
 73
    -5
 74
     8
  0
VERTEX
  5
C6
330
BC
100
AcDbEntity
  8
M-EQPM
 62
     7
420
 16777215
100
AcDbFaceRecord
 10
0.0
 20
0.0
 30
0.0
 70
   128
 71
    -4
 72
     1
 73
     2
 74
     3
  0
VERTEX
  5
C7
330
BC
100
AcDbEntity
  8
M-EQPM
 62
     7
420
 16777215
100
AcDbFaceRecord
 10
0.0
 20
0.0
 30
0.0
 70
   128
 71
     7
 72
    -8
 73
     5
 74
     6
  0
SEQEND
  5
C8
330
BC
100
AcDbEntity
  8
M-EQPM
 62
     7
420
 16777215
  0
POLYLINE
  5
C9
330
70
100
AcDbEntity
  8
M-EQPM
 62
     7
420
 16777215
100
AcDbPolyFaceMesh
 66
     1
 10
0.0
 20
0.0
 30
0.0
 70
    64
 71
     4
 72
     1
1001
REVIT
1002
{
1070
     1
1000
4829
1002
}
1002
{
1070
     4
1000
3254
1002
}
1002
{
1070
     2
1000
-2001140
1002
}
  0
VERTEX
  5
CA
330
C9
100
AcDbEntity
  8
M-EQPM
 62
     7
420
 16777215
100
AcDbVertex
100
AcDbPolyFaceMeshVertex
 10
-585.0000117301942
 20
-570.9999941825866
 30
20.74660111069679
 70
   192
  0
VERTEX
  5
CB
330
C9
100
AcDbEntity
  8
M-EQPM
 62
     7
420
 16777215
100
AcDbVertex
100
AcDbPolyFaceMeshVertex
 10
-585.0000117301942
 20
-570.9999941825866
 30
246.5007060527802
 70
   192
  0
VERTEX
  5
CC
330
C9
100
AcDbEntity
  8
M-EQPM
 62
     7
420
 16777215
100
AcDbVertex
100
AcDbPolyFaceMeshVertex
 10
-585.0000117301942
 20
0.0
 30
246.5007060527802
 70
   192
  0
VERTEX
  5
CD
330
C9
100
AcDbEntity
  8
M-EQPM
 62
     7
420
 16777215
100
AcDbVertex
100
AcDbPolyFaceMeshVertex
 10
-585.0000117301942
 20
0.0
 30
20.74660111069679
 70
   192
  0
VERTEX
  5
CE
330
C9
100
AcDbEntity
  8
M-EQPM
 62
     7
420
 16777215
100
AcDbFaceRecord
 10
0.0
 20
0.0
 30
0.0
 70
   128
 71
     1
 72
     2
 73
     3
 74
     4
  0
SEQEND
  5
CF
330
C9
100
AcDbEntity
  8
M-EQPM
 62
     7
420
 16777215
  0
POLYLINE
  5
D0
330
70
100
AcDbEntity
  8
M-EQPM
 62
     7
420
 16777215
100
AcDbPolyFaceMesh
 66
     1
 10
0.0
 20
0.0
 30
0.0
 70
    64
 71
     4
 72
     1
1001
REVIT
1002
{
1070
     1
1000
4829
1002
}
1002
{
1070
     4
1000
3254
1002
}
1002
{
1070
     2
1000
-2001140
1002
}
  0
VERTEX
  5
D1
330
D0
100
AcDbEntity
  8
M-EQPM
 62
     7
420
 16777215
100
AcDbVertex
100
AcDbPolyFaceMeshVertex
 10
-585.0000117301942
 20
0.0
 30
20.74660111069679
 70
   192
  0
VERTEX
  5
D2
330
D0
100
AcDbEntity
  8
M-EQPM
 62
     7
420
 16777215
100
AcDbVertex
100
AcDbPolyFaceMeshVertex
 10
-585.0000117301942
 20
0.0
 30
246.5007060527802
 70
   192
  0
VERTEX
  5
D3
330
D0
100
AcDbEntity
  8
M-EQPM
 62
     7
420
 16777215
100
AcDbVertex
100
AcDbPolyFaceMeshVertex
 10
-569.99998254776
 20
0.0
 30
246.5007060527802
 70
   192
  0
VERTEX
  5
D4
330
D0
100
AcDbEntity
  8
M-EQPM
 62
     7
420
 16777215
100
AcDbVertex
100
AcDbPolyFaceMeshVertex
 10
-569.99998254776
 20
0.0
 30
20.74660111069679
 70
   192
  0
VERTEX
  5
D5
330
D0
100
AcDbEntity
  8
M-EQPM
 62
     7
420
 16777215
100
AcDbFaceRecord
 10
0.0
 20
0.0
 30
0.0
 70
   128
 71
     1
 72
     2
 73
     3
 74
     4
  0
SEQEND
  5
D6
330
D0
100
AcDbEntity
  8
M-EQPM
 62
     7
420
 16777215
  0
POLYLINE
  5
D7
330
70
100
AcDbEntity
  8
M-EQPM
 62
     7
420
 16777215
100
AcDbPolyFaceMesh
 66
     1
 10
0.0
 20
0.0
 30
0.0
 70
    64
 71
     4
 72
     1
1001
REVIT
1002
{
1070
     1
1000
4829
1002
}
1002
{
1070
     4
1000
3254
1002
}
1002
{
1070
     2
1000
-2001140
1002
}
  0
VERTEX
  5
D8
330
D7
100
AcDbEntity
  8
M-EQPM
 62
     7
420
 16777215
100
AcDbVertex
100
AcDbPolyFaceMeshVertex
 10
-569.99998254776
 20
0.0
 30
20.74660111069679
 70
   192
  0
VERTEX
  5
D9
330
D7
100
AcDbEntity
  8
M-EQPM
 62
     7
420
 16777215
100
AcDbVertex
100
AcDbPolyFaceMeshVertex
 10
-569.99998254776
 20
0.0
 30
246.5007060527802
 70
   192
  0
VERTEX
  5
DA
330
D7
100
AcDbEntity
  8
M-EQPM
 62
     7
420
 16777215
100
AcDbVertex
100
AcDbPolyFaceMeshVertex
 10
-569.99998254776
 20
-556.000001335144
 30
246.5007060527802
 70
   192
  0
VERTEX
  5
DB
330
D7
100
AcDbEntity
  8
M-EQPM
 62
     7
420
 16777215
100
AcDbVertex
100
AcDbPolyFaceMeshVertex
 10
-569.99998254776
 20
-556.000001335144
 30
20.74660111069679
 70
   192
  0
VERTEX
  5
DC
330
D7
100
AcDbEntity
  8
M-EQPM
 62
     7
420
 16777215
100
AcDbFaceRecord
 10
0.0
 20
0.0
 30
0.0
 70
   128
 71
     1
 72
     2
 73
     3
 74
     4
  0
SEQEND
  5
DD
330
D7
100
AcDbEntity
  8
M-EQPM
 62
     7
420
 16777215
  0
POLYLINE
  5
DE
330
70
100
AcDbEntity
  8
M-EQPM
 62
     7
420
 16777215
100
AcDbPolyFaceMesh
 66
     1
 10
0.0
 20
0.0
 30
0.0
 70
    64
 71
     4
 72
     1
1001
REVIT
1002
{
1070
     1
1000
4829
1002
}
1002
{
1070
     4
1000
3254
1002
}
1002
{
1070
     2
1000
-2001140
1002
}
  0
VERTEX
  5
DF
330
DE
100
AcDbEntity
  8
M-EQPM
 62
     7
420
 16777215
100
AcDbVertex
100
AcDbPolyFaceMeshVertex
 10
-569.99998254776
 20
-556.000001335144
 30
20.74660111069679
 70
   192
  0
VERTEX
  5
E0
330
DE
100
AcDbEntity
  8
M-EQPM
 62
     7
420
 16777215
100
AcDbVertex
100
AcDbPolyFaceMeshVertex
 10
-569.99998254776
 20
-556.000001335144
 30
246.5007060527802
 70
   192
  0
VERTEX
  5
E1
330
DE
100
AcDbEntity
  8
M-EQPM
 62
     7
420
 16777215
100
AcDbVertex
100
AcDbPolyFaceMeshVertex
 10
569.99998254776
 20
-556.000001335144
 30
246.5007060527802
 70
   192
  0
VERTEX
  5
E2
330
DE
100
AcDbEntity
  8
M-EQPM
 62
     7
420
 16777215
100
AcDbVertex
100
AcDbPolyFaceMeshVertex
 10
569.99998254776
 20
-556.000001335144
 30
20.74660111069679
 70
   192
  0
VERTEX
  5
E3
330
DE
100
AcDbEntity
  8
M-EQPM
 62
     7
420
 16777215
100
AcDbFaceRecord
 10
0.0
 20
0.0
 30
0.0
 70
   128
 71
     1
 72
     2
 73
     3
 74
     4
  0
SEQEND
  5
E4
330
DE
100
AcDbEntity
  8
M-EQPM
 62
     7
420
 16777215
  0
POLYLINE
  5
E5
330
70
100
AcDbEntity
  8
M-EQPM
 62
     7
420
 16777215
100
AcDbPolyFaceMesh
 66
     1
 10
0.0
 20
0.0
 30
0.0
 70
    64
 71
     4
 72
     1
1001
REVIT
1002
{
1070
     1
1000
4829
1002
}
1002
{
1070
     4
1000
3254
1002
}
1002
{
1070
     2
1000
-2001140
1002
}
  0
VERTEX
  5
E6
330
E5
100
AcDbEntity
  8
M-EQPM
 62
     7
420
 16777215
100
AcDbVertex
100
AcDbPolyFaceMeshVertex
 10
569.99998254776
 20
-556.000001335144
 30
20.74660111069679
 70
   192
  0
VERTEX
  5
E7
330
E5
100
AcDbEntity
  8
M-EQPM
 62
     7
420
 16777215
100
AcDbVertex
100
AcDbPolyFaceMeshVertex
 10
569.99998254776
 20
-556.000001335144
 30
246.5007060527802
 70
   192
  0
VERTEX
  5
E8
330
E5
100
AcDbEntity
  8
M-EQPM
 62
     7
420
 16777215
100
AcDbVertex
100
AcDbPolyFaceMeshVertex
 10
569.99998254776
 20
0.0
 30
246.5007060527802
 70
   192
  0
VERTEX
  5
E9
330
E5
100
AcDbEntity
  8
M-EQPM
 62
     7
420
 16777215
100
AcDbVertex
100
AcDbPolyFaceMeshVertex
 10
569.99998254776
 20
0.0
 30
20.74660111069679
 70
   192
  0
VERTEX
  5
EA
330
E5
100
AcDbEntity
  8
M-EQPM
 62
     7
420
 16777215
100
AcDbFaceRecord
 10
0.0
 20
0.0
 30
0.0
 70
   128
 71
     1
 72
     2
 73
     3
 74
     4
  0
SEQEND
  5
EB
330
E5
100
AcDbEntity
  8
M-EQPM
 62
     7
420
 16777215
  0
POLYLINE
  5
EC
330
70
100
AcDbEntity
  8
M-EQPM
 62
     7
420
 16777215
100
AcDbPolyFaceMesh
 66
     1
 10
0.0
 20
0.0
 30
0.0
 70
    64
 71
     4
 72
     1
1001
REVIT
1002
{
1070
     1
1000
4829
1002
}
1002
{
1070
     4
1000
3254
1002
}
1002
{
1070
     2
1000
-2001140
1002
}
  0
VERTEX
  5
ED
330
EC
100
AcDbEntity
  8
M-EQPM
 62
     7
420
 16777215
100
AcDbVertex
100
AcDbPolyFaceMeshVertex
 10
569.99998254776
 20
0.0
 30
20.74660111069679
 70
   192
  0
VERTEX
  5
EE
330
EC
100
AcDbEntity
  8
M-EQPM
 62
     7
420
 16777215
100
AcDbVertex
100
AcDbPolyFaceMeshVertex
 10
569.99998254776
 20
0.0
 30
246.5007060527802
 70
   192
  0
VERTEX
  5
EF
330
EC
100
AcDbEntity
  8
M-EQPM
 62
     7
420
 16777215
100
AcDbVertex
100
AcDbPolyFaceMeshVertex
 10
585.0000117301942
 20
0.0
 30
246.5007060527802
 70
   192
  0
VERTEX
  5
F0
330
EC
100
AcDbEntity
  8
M-EQPM
 62
     7
420
 16777215
100
AcDbVertex
100
AcDbPolyFaceMeshVertex
 10
585.0000117301942
 20
0.0
 30
20.74660111069679
 70
   192
  0
VERTEX
  5
F1
330
EC
100
AcDbEntity
  8
M-EQPM
 62
     7
420
 16777215
100
AcDbFaceRecord
 10
0.0
 20
0.0
 30
0.0
 70
   128
 71
     1
 72
     2
 73
     3
 74
     4
  0
SEQEND
  5
F2
330
EC
100
AcDbEntity
  8
M-EQPM
 62
     7
420
 16777215
  0
POLYLINE
  5
F3
330
70
100
AcDbEntity
  8
M-EQPM
 62
     7
420
 16777215
100
AcDbPolyFaceMesh
 66
     1
 10
0.0
 20
0.0
 30
0.0
 70
    64
 71
     4
 72
     1
1001
REVIT
1002
{
1070
     1
1000
4829
1002
}
1002
{
1070
     4
1000
3254
1002
}
1002
{
1070
     2
1000
-2001140
1002
}
  0
VERTEX
  5
F4
330
F3
100
AcDbEntity
  8
M-EQPM
 62
     7
420
 16777215
100
AcDbVertex
100
AcDbPolyFaceMeshVertex
 10
585.0000117301942
 20
0.0
 30
20.74660111069679
 70
   192
  0
VERTEX
  5
F5
330
F3
100
AcDbEntity
  8
M-EQPM
 62
     7
420
 16777215
100
AcDbVertex
100
AcDbPolyFaceMeshVertex
 10
585.0000117301942
 20
0.0
 30
246.5007060527802
 70
   192
  0
VERTEX
  5
F6
330
F3
100
AcDbEntity
  8
M-EQPM
 62
     7
420
 16777215
100
AcDbVertex
100
AcDbPolyFaceMeshVertex
 10
585.0000117301942
 20
-570.9999941825866
 30
246.5007060527802
 70
   192
  0
VERTEX
  5
F7
330
F3
100
AcDbEntity
  8
M-EQPM
 62
     7
420
 16777215
100
AcDbVertex
100
AcDbPolyFaceMeshVertex
 10
585.0000117301942
 20
-570.9999941825866
 30
20.74660111069679
 70
   192
  0
VERTEX
  5
F8
330
F3
100
AcDbEntity
  8
M-EQPM
 62
     7
420
 16777215
100
AcDbFaceRecord
 10
0.0
 20
0.0
 30
0.0
 70
   128
 71
     1
 72
     2
 73
     3
 74
     4
  0
SEQEND
  5
F9
330
F3
100
AcDbEntity
  8
M-EQPM
 62
     7
420
 16777215
  0
POLYLINE
  5
FA
330
70
100
AcDbEntity
  8
M-EQPM
 62
     7
420
 16777215
100
AcDbPolyFaceMesh
 66
     1
 10
0.0
 20
0.0
 30
0.0
 70
    64
 71
     4
 72
     1
1001
REVIT
1002
{
1070
     1
1000
4829
1002
}
1002
{
1070
     4
1000
3254
1002
}
1002
{
1070
     2
1000
-2001140
1002
}
  0
VERTEX
  5
FB
330
FA
100
AcDbEntity
  8
M-EQPM
 62
     7
420
 16777215
100
AcDbVertex
100
AcDbPolyFaceMeshVertex
 10
585.0000117301942
 20
-570.9999941825866
 30
20.74660111069679
 70
   192
  0
VERTEX
  5
FC
330
FA
100
AcDbEntity
  8
M-EQPM
 62
     7
420
 16777215
100
AcDbVertex
100
AcDbPolyFaceMeshVertex
 10
585.0000117301942
 20
-570.9999941825866
 30
246.5007060527802
 70
   192
  0
VERTEX
  5
FD
330
FA
100
AcDbEntity
  8
M-EQPM
 62
     7
420
 16777215
100
AcDbVertex
100
AcDbPolyFaceMeshVertex
 10
-585.0000117301942
 20
-570.9999941825866
 30
246.5007060527802
 70
   192
  0
VERTEX
  5
FE
330
FA
100
AcDbEntity
  8
M-EQPM
 62
     7
420
 16777215
100
AcDbVertex
100
AcDbPolyFaceMeshVertex
 10
-585.0000117301942
 20
-570.9999941825866
 30
20.74660111069679
 70
   192
  0
VERTEX
  5
FF
330
FA
100
AcDbEntity
  8
M-EQPM
 62
     7
420
 16777215
100
AcDbFaceRecord
 10
0.0
 20
0.0
 30
0.0
 70
   128
 71
     1
 72
     2
 73
     3
 74
     4
  0
SEQEND
  5
100
330
FA
100
AcDbEntity
  8
M-EQPM
 62
     7
420
 16777215
  0
POLYLINE
  5
101
330
70
100
AcDbEntity
  8
M-EQPM
 62
     7
420
 16777215
100
AcDbPolyFaceMesh
 66
     1
 10
0.0
 20
0.0
 30
0.0
 70
    64
 71
     4
 72
     1
1001
REVIT
1002
{
1070
     1
1000
5176
1002
}
1002
{
1070
     4
1000
3254
1002
}
1002
{
1070
     2
1000
-2001140
1002
}
  0
VERTEX
  5
102
330
101
100
AcDbEntity
  8
M-EQPM
 62
     7
420
 16777215
100
AcDbVertex
100
AcDbPolyFaceMeshVertex
 10
-566.6838695526123
 20
-556.000001335144
 30
-0.0000000000007064
 70
   192
  0
VERTEX
  5
103
330
101
100
AcDbEntity
  8
M-EQPM
 62
     7
420
 16777215
100
AcDbVertex
100
AcDbPolyFaceMeshVertex
 10
-566.6838695526123
 20
-14.83875632286071
 30
-0.0000000000007064
 70
   192
  0
VERTEX
  5
104
330
101
100
AcDbEntity
  8
M-EQPM
 62
     7
420
 16777215
100
AcDbVertex
100
AcDbPolyFaceMeshVertex
 10
566.9999839782715
 20
-14.83875632286071
 30
-0.0000000000043738
 70
   192
  0
VERTEX
  5
105
330
101
100
AcDbEntity
  8
M-EQPM
 62
     7
420
 16777215
100
AcDbVertex
100
AcDbPolyFaceMeshVertex
 10
566.9999839782715
 20
-556.000001335144
 30
-0.0000000000043738
 70
   192
  0
VERTEX
  5
106
330
101
100
AcDbEntity
  8
M-EQPM
 62
     7
420
 16777215
100
AcDbFaceRecord
 10
0.0
 20
0.0
 30
0.0
 70
   128
 71
     1
 72
     2
 73
     3
 74
     4
  0
SEQEND
  5
107
330
101
100
AcDbEntity
  8
M-EQPM
 62
     7
420
 16777215
  0
POLYLINE
  5
108
330
70
100
AcDbEntity
  8
M-EQPM
 62
     7
420
 16777215
100
AcDbPolyFaceMesh
 66
     1
 10
0.0
 20
0.0
 30
0.0
 70
    64
 71
     4
 72
     1
1001
REVIT
1002
{
1070
     1
1000
5176
1002
}
1002
{
1070
     4
1000
3254
1002
}
1002
{
1070
     2
1000
-2001140
1002
}
  0
VERTEX
  5
109
330
108
100
AcDbEntity
  8
M-EQPM
 62
     7
420
 16777215
100
AcDbVertex
100
AcDbPolyFaceMeshVertex
 10
578.0108307838439
 20
0.0
 30
14.49999952018261
 70
   192
  0
VERTEX
  5
10A
330
108
100
AcDbEntity
  8
M-EQPM
 62
     7
420
 16777215
100
AcDbVertex
100
AcDbPolyFaceMeshVertex
 10
-578.0331404685974
 20
0.0
 30
14.49999952018261
 70
   192
  0
VERTEX
  5
10B
330
108
100
AcDbEntity
  8
M-EQPM
 62
     7
420
 16777215
100
AcDbVertex
100
AcDbPolyFaceMeshVertex
 10
-578.0331404685974
 20
-570.9999941825866
 30
14.49999952018261
 70
   192
  0
VERTEX
  5
10C
330
108
100
AcDbEntity
  8
M-EQPM
 62
     7
420
 16777215
100
AcDbVertex
100
AcDbPolyFaceMeshVertex
 10
578.0108307838439
 20
-570.9999941825866
 30
14.49999952018261
 70
   192
  0
VERTEX
  5
10D
330
108
100
AcDbEntity
  8
M-EQPM
 62
     7
420
 16777215
100
AcDbFaceRecord
 10
0.0
 20
0.0
 30
0.0
 70
   128
 71
     1
 72
     2
 73
     3
 74
     4
  0
SEQEND
  5
10E
330
108
100
AcDbEntity
  8
M-EQPM
 62
     7
420
 16777215
  0
POLYLINE
  5
10F
330
70
100
AcDbEntity
  8
M-EQPM
 62
     7
420
 16777215
100
AcDbPolyFaceMesh
 66
     1
 10
0.0
 20
0.0
 30
0.0
 70
    64
 71
     4
 72
     1
1001
REVIT
1002
{
1070
     1
1000
5176
1002
}
1002
{
1070
     4
1000
3254
1002
}
1002
{
1070
     2
1000
-2001140
1002
}
  0
VERTEX
  5
110
330
10F
100
AcDbEntity
  8
M-EQPM
 62
     7
420
 16777215
100
AcDbVertex
100
AcDbPolyFaceMeshVertex
 10
578.0108307838439
 20
-570.9999941825866
 30
14.49999952018261
 70
   192
  0
VERTEX
  5
111
330
10F
100
AcDbEntity
  8
M-EQPM
 62
     7
420
 16777215
100
AcDbVertex
100
AcDbPolyFaceMeshVertex
 10
566.9999839782715
 20
-556.000001335144
 30
-0.0000000000043738
 70
   192
  0
VERTEX
  5
112
330
10F
100
AcDbEntity
  8
M-EQPM
 62
     7
420
 16777215
100
AcDbVertex
100
AcDbPolyFaceMeshVertex
 10
566.9999839782715
 20
-14.83875632286071
 30
-0.0000000000043738
 70
   192
  0
VERTEX
  5
113
330
10F
100
AcDbEntity
  8
M-EQPM
 62
     7
420
 16777215
100
AcDbVertex
100
AcDbPolyFaceMeshVertex
 10
578.0108307838439
 20
0.0
 30
14.49999952018261
 70
   192
  0
VERTEX
  5
114
330
10F
100
AcDbEntity
  8
M-EQPM
 62
     7
420
 16777215
100
AcDbFaceRecord
 10
0.0
 20
0.0
 30
0.0
 70
   128
 71
     1
 72
     2
 73
     3
 74
     4
  0
SEQEND
  5
115
330
10F
100
AcDbEntity
  8
M-EQPM
 62
     7
420
 16777215
  0
POLYLINE
  5
116
330
70
100
AcDbEntity
  8
M-EQPM
 62
     7
420
 16777215
100
AcDbPolyFaceMesh
 66
     1
 10
0.0
 20
0.0
 30
0.0
 70
    64
 71
     4
 72
     1
1001
REVIT
1002
{
1070
     1
1000
5176
1002
}
1002
{
1070
     4
1000
3254
1002
}
1002
{
1070
     2
1000
-2001140
1002
}
  0
VERTEX
  5
117
330
116
100
AcDbEntity
  8
M-EQPM
 62
     7
420
 16777215
100
AcDbVertex
100
AcDbPolyFaceMeshVertex
 10
578.0108307838439
 20
0.0000000000000002
 30
14.49999952018261
 70
   192
  0
VERTEX
  5
118
330
116
100
AcDbEntity
  8
M-EQPM
 62
     7
420
 16777215
100
AcDbVertex
100
AcDbPolyFaceMeshVertex
 10
566.9999839782715
 20
-14.83875632286071
 30
-0.0000000000043759
 70
   192
  0
VERTEX
  5
119
330
116
100
AcDbEntity
  8
M-EQPM
 62
     7
420
 16777215
100
AcDbVertex
100
AcDbPolyFaceMeshVertex
 10
-566.6838695526123
 20
-14.83875632286071
 30
-0.0000000000007085
 70
   192
  0
VERTEX
  5
11A
330
116
100
AcDbEntity
  8
M-EQPM
 62
     7
420
 16777215
100
AcDbVertex
100
AcDbPolyFaceMeshVertex
 10
-578.0331404685974
 20
0.0000000000000014
 30
14.49999952018261
 70
   192
  0
VERTEX
  5
11B
330
116
100
AcDbEntity
  8
M-EQPM
 62
     7
420
 16777215
100
AcDbFaceRecord
 10
0.0
 20
0.0
 30
0.0
 70
   128
 71
     1
 72
     2
 73
     3
 74
     4
  0
SEQEND
  5
11C
330
116
100
AcDbEntity
  8
M-EQPM
 62
     7
420
 16777215
  0
POLYLINE
  5
11D
330
70
100
AcDbEntity
  8
M-EQPM
 62
     7
420
 16777215
100
AcDbPolyFaceMesh
 66
     1
 10
0.0
 20
0.0
 30
0.0
 70
    64
 71
     4
 72
     1
1001
REVIT
1002
{
1070
     1
1000
5176
1002
}
1002
{
1070
     4
1000
3254
1002
}
1002
{
1070
     2
1000
-2001140
1002
}
  0
VERTEX
  5
11E
330
11D
100
AcDbEntity
  8
M-EQPM
 62
     7
420
 16777215
100
AcDbVertex
100
AcDbPolyFaceMeshVertex
 10
-578.0331404685974
 20
0.0
 30
14.49999952018261
 70
   192
  0
VERTEX
  5
11F
330
11D
100
AcDbEntity
  8
M-EQPM
 62
     7
420
 16777215
100
AcDbVertex
100
AcDbPolyFaceMeshVertex
 10
-566.6838695526123
 20
-14.83875632286071
 30
-0.0000000000007064
 70
   192
  0
VERTEX
  5
120
330
11D
100
AcDbEntity
  8
M-EQPM
 62
     7
420
 16777215
100
AcDbVertex
100
AcDbPolyFaceMeshVertex
 10
-566.6838695526123
 20
-556.000001335144
 30
-0.0000000000007064
 70
   192
  0
VERTEX
  5
121
330
11D
100
AcDbEntity
  8
M-EQPM
 62
     7
420
 16777215
100
AcDbVertex
100
AcDbPolyFaceMeshVertex
 10
-578.0331404685974
 20
-570.9999941825866
 30
14.49999952018261
 70
   192
  0
VERTEX
  5
122
330
11D
100
AcDbEntity
  8
M-EQPM
 62
     7
420
 16777215
100
AcDbFaceRecord
 10
0.0
 20
0.0
 30
0.0
 70
   128
 71
     1
 72
     2
 73
     3
 74
     4
  0
SEQEND
  5
123
330
11D
100
AcDbEntity
  8
M-EQPM
 62
     7
420
 16777215
  0
POLYLINE
  5
124
330
70
100
AcDbEntity
  8
M-EQPM
 62
     7
420
 16777215
100
AcDbPolyFaceMesh
 66
     1
 10
0.0
 20
0.0
 30
0.0
 70
    64
 71
     4
 72
     1
1001
REVIT
1002
{
1070
     1
1000
5176
1002
}
1002
{
1070
     4
1000
3254
1002
}
1002
{
1070
     2
1000
-2001140
1002
}
  0
VERTEX
  5
125
330
124
100
AcDbEntity
  8
M-EQPM
 62
     7
420
 16777215
100
AcDbVertex
100
AcDbPolyFaceMeshVertex
 10
-578.0331404685974
 20
-570.9999941825866
 30
14.49999952018261
 70
   192
  0
VERTEX
  5
126
330
124
100
AcDbEntity
  8
M-EQPM
 62
     7
420
 16777215
100
AcDbVertex
100
AcDbPolyFaceMeshVertex
 10
-566.6838695526123
 20
-556.000001335144
 30
-0.0000000000007064
 70
   192
  0
VERTEX
  5
127
330
124
100
AcDbEntity
  8
M-EQPM
 62
     7
420
 16777215
100
AcDbVertex
100
AcDbPolyFaceMeshVertex
 10
566.9999839782715
 20
-556.000001335144
 30
-0.0000000000043738
 70
   192
  0
VERTEX
  5
128
330
124
100
AcDbEntity
  8
M-EQPM
 62
     7
420
 16777215
100
AcDbVertex
100
AcDbPolyFaceMeshVertex
 10
578.0108307838439
 20
-570.9999941825866
 30
14.49999952018261
 70
   192
  0
VERTEX
  5
129
330
124
100
AcDbEntity
  8
M-EQPM
 62
     7
420
 16777215
100
AcDbFaceRecord
 10
0.0
 20
0.0
 30
0.0
 70
   128
 71
     1
 72
     2
 73
     3
 74
     4
  0
SEQEND
  5
12A
330
124
100
AcDbEntity
  8
M-EQPM
 62
     7
420
 16777215
  0
POLYLINE
  5
12B
330
70
100
AcDbEntity
  8
M-EQPM
 62
   251
420
  4674641
100
AcDbPolyFaceMesh
 66
     1
 10
0.0
 20
0.0
 30
0.0
 70
    64
 71
    24
 72
    13
1001
REVIT
1002
{
1070
     1
1000
10288
1002
}
1002
{
1070
     4
1000
3251
1002
}
1002
{
1070
     2
1000
-2001140
1002
}
  0
VERTEX
  5
12C
330
12B
100
AcDbEntity
  8
M-EQPM
 62
   251
420
  4674641
100
AcDbVertex
100
AcDbPolyFaceMeshVertex
 10
417.4999886512756
 20
18.45000028610229
 30
104.0000018835067
 70
   192
  0
VERTEX
  5
12D
330
12B
100
AcDbEntity
  8
M-EQPM
 62
   251
420
  4674641
100
AcDbVertex
100
AcDbPolyFaceMeshVertex
 10
419.6296188354492
 20
18.45000028610229
 30
120.1761947393417
 70
   192
  0
VERTEX
  5
12E
330
12B
100
AcDbEntity
  8
M-EQPM
 62
   251
420
  4674641
100
AcDbVertex
100
AcDbPolyFaceMeshVertex
 10
425.8734237670898
 20
18.45000028610229
 30
135.2500021219253
 70
   192
  0
VERTEX
  5
12F
330
12B
100
AcDbEntity
  8
M-EQPM
 62
   251
420
  4674641
100
AcDbVertex
100
AcDbPolyFaceMeshVertex
 10
435.8058116912841
 20
18.45000028610229
 30
148.1941702365875
 70
   192
  0
VERTEX
  5
130
330
12B
100
AcDbEntity
  8
M-EQPM
 62
   251
420
  4674641
100
AcDbVertex
100
AcDbPolyFaceMeshVertex
 10
448.75000705719
 20
18.45000028610229
 30
158.1265944957733
 70
   192
  0
VERTEX
  5
131
330
12B
100
AcDbEntity
  8
M-EQPM
 62
   251
420
  4674641
100
AcDbVertex
100
AcDbPolyFaceMeshVertex
 10
463.8237962722778
 20
18.45000028610229
 30
164.3703630924225
 70
   192
  0
VERTEX
  5
132
330
12B
100
AcDbEntity
  8
M-EQPM
 62
   251
420
  4674641
100
AcDbVertex
100
AcDbPolyFaceMeshVertex
 10
479.9999891281128
 20
18.45000028610229
 30
166.4999932765961
 70
   192
  0
VERTEX
  5
133
330
12B
100
AcDbEntity
  8
M-EQPM
 62
   251
420
  4674641
100
AcDbVertex
100
AcDbPolyFaceMeshVertex
 10
496.1761819839478
 20
18.45000028610229
 30
164.3703630924225
 70
   192
  0
VERTEX
  5
134
330
12B
100
AcDbEntity
  8
M-EQPM
 62
   251
420
  4674641
100
AcDbVertex
100
AcDbPolyFaceMeshVertex
 10
511.2500075340271
 20
18.45000028610229
 30
158.1265944957733
 70
   192
  0
VERTEX
  5
135
330
12B
100
AcDbEntity
  8
M-EQPM
 62
   251
420
  4674641
100
AcDbVertex
100
AcDbPolyFaceMeshVertex
 10
524.1941665649413
 20
18.45000028610229
 30
148.1941702365875
 70
   192
  0
VERTEX
  5
136
330
12B
100
AcDbEntity
  8
M-EQPM
 62
   251
420
  4674641
100
AcDbVertex
100
AcDbPolyFaceMeshVertex
 10
534.1265908241272
 20
18.45000028610229
 30
135.2500021219253
 70
   192
  0
VERTEX
  5
137
330
12B
100
AcDbEntity
  8
M-EQPM
 62
   251
420
  4674641
100
AcDbVertex
100
AcDbPolyFaceMeshVertex
 10
540.3703594207764
 20
18.45000028610229
 30
120.1761947393417
 70
   192
  0
VERTEX
  5
138
330
12B
100
AcDbEntity
  8
M-EQPM
 62
   251
420
  4674641
100
AcDbVertex
100
AcDbPolyFaceMeshVertex
 10
542.49998960495
 20
18.45000028610229
 30
104.0000018835067
 70
   192
  0
VERTEX
  5
139
330
12B
100
AcDbEntity
  8
M-EQPM
 62
   251
420
  4674641
100
AcDbVertex
100
AcDbPolyFaceMeshVertex
 10
540.3703594207764
 20
18.45000028610229
 30
87.82380902767181
 70
   192
  0
VERTEX
  5
13A
330
12B
100
AcDbEntity
  8
M-EQPM
 62
   251
420
  4674641
100
AcDbVertex
100
AcDbPolyFaceMeshVertex
 10
534.1265908241272
 20
18.45000028610229
 30
72.75000164508821
 70
   192
  0
VERTEX
  5
13B
330
12B
100
AcDbEntity
  8
M-EQPM
 62
   251
420
  4674641
100
AcDbVertex
100
AcDbPolyFaceMeshVertex
 10
524.1941665649413
 20
18.45000028610229
 30
59.80582444667817
 70
   192
  0
VERTEX
  5
13C
330
12B
100
AcDbEntity
  8
M-EQPM
 62
   251
420
  4674641
100
AcDbVertex
100
AcDbPolyFaceMeshVertex
 10
511.2500075340271
 20
18.45000028610229
 30
49.87341381311416
 70
   192
  0
VERTEX
  5
13D
330
12B
100
AcDbEntity
  8
M-EQPM
 62
   251
420
  4674641
100
AcDbVertex
100
AcDbPolyFaceMeshVertex
 10
496.1761819839478
 20
18.45000028610229
 30
43.62963613271713
 70
   192
  0
VERTEX
  5
13E
330
12B
100
AcDbEntity
  8
M-EQPM
 62
   251
420
  4674641
100
AcDbVertex
100
AcDbPolyFaceMeshVertex
 10
479.9999891281128
 20
18.45000028610229
 30
41.50000140666961
 70
   192
  0
VERTEX
  5
13F
330
12B
100
AcDbEntity
  8
M-EQPM
 62
   251
420
  4674641
100
AcDbVertex
100
AcDbPolyFaceMeshVertex
 10
463.8237962722778
 20
18.45000028610229
 30
43.62963613271713
 70
   192
  0
VERTEX
  5
140
330
12B
100
AcDbEntity
  8
M-EQPM
 62
   251
420
  4674641
100
AcDbVertex
100
AcDbPolyFaceMeshVertex
 10
448.75000705719
 20
18.45000028610229
 30
49.87341381311416
 70
   192
  0
VERTEX
  5
141
330
12B
100
AcDbEntity
  8
M-EQPM
 62
   251
420
  4674641
100
AcDbVertex
100
AcDbPolyFaceMeshVertex
 10
435.8058116912841
 20
18.45000028610229
 30
59.80582444667817
 70
   192
  0
VERTEX
  5
142
330
12B
100
AcDbEntity
  8
M-EQPM
 62
   251
420
  4674641
100
AcDbVertex
100
AcDbPolyFaceMeshVertex
 10
425.8734237670898
 20
18.45000028610229
 30
72.75000164508821
 70
   192
  0
VERTEX
  5
143
330
12B
100
AcDbEntity
  8
M-EQPM
 62
   251
420
  4674641
100
AcDbVertex
100
AcDbPolyFaceMeshVertex
 10
419.6296188354492
 20
18.45000028610229
 30
87.82380902767181
 70
   192
  0
VERTEX
  5
144
330
12B
100
AcDbEntity
  8
M-EQPM
 62
   251
420
  4674641
100
AcDbFaceRecord
 10
0.0
 20
0.0
 30
0.0
 70
   128
 71
     8
 72
     9
 73
    10
 74
   -11
  0
VERTEX
  5
145
330
12B
100
AcDbEntity
  8
M-EQPM
 62
   251
420
  4674641
100
AcDbFaceRecord
 10
0.0
 20
0.0
 30
0.0
 70
   128
 71
    11
 72
    12
 73
    13
 74
   -14
  0
VERTEX
  5
146
330
12B
100
AcDbEntity
  8
M-EQPM
 62
   251
420
  4674641
100
AcDbFaceRecord
 10
0.0
 20
0.0
 30
0.0
 70
   128
 71
   -15
 72
    -5
 73
    -8
 74
   -11
  0
VERTEX
  5
147
330
12B
100
AcDbEntity
  8
M-EQPM
 62
   251
420
  4674641
100
AcDbFaceRecord
 10
0.0
 20
0.0
 30
0.0
 70
   128
 71
     6
 72
     7
 73
    -8
 74
     5
  0
VERTEX
  5
148
330
12B
100
AcDbEntity
  8
M-EQPM
 62
   251
420
  4674641
100
AcDbFaceRecord
 10
0.0
 20
0.0
 30
0.0
 70
   128
 71
     2
 72
     3
 73
    -4
 74
   -24
  0
VERTEX
  5
149
330
12B
100
AcDbEntity
  8
M-EQPM
 62
   251
420
  4674641
100
AcDbFaceRecord
 10
0.0
 20
0.0
 30
0.0
 70
   128
 71
   -24
 72
     4
 73
    -5
 74
   -15
  0
VERTEX
  5
14A
330
12B
100
AcDbEntity
  8
M-EQPM
 62
   251
420
  4674641
100
AcDbFaceRecord
 10
0.0
 20
0.0
 30
0.0
 70
   128
 71
    15
 72
   -16
 73
    18
 74
   -19
  0
VERTEX
  5
14B
330
12B
100
AcDbEntity
  8
M-EQPM
 62
   251
420
  4674641
100
AcDbFaceRecord
 10
0.0
 20
0.0
 30
0.0
 70
   128
 71
   -18
 72
    16
 73
    17
  0
VERTEX
  5
14C
330
12B
100
AcDbEntity
  8
M-EQPM
 62
   251
420
  4674641
100
AcDbFaceRecord
 10
0.0
 20
0.0
 30
0.0
 70
   128
 71
   -15
 72
   -19
 73
   -21
 74
   -24
  0
VERTEX
  5
14D
330
12B
100
AcDbEntity
  8
M-EQPM
 62
   251
420
  4674641
100
AcDbFaceRecord
 10
0.0
 20
0.0
 30
0.0
 70
   128
 71
    22
 72
    23
 73
   -24
 74
    21
  0
VERTEX
  5
14E
330
12B
100
AcDbEntity
  8
M-EQPM
 62
   251
420
  4674641
100
AcDbFaceRecord
 10
0.0
 20
0.0
 30
0.0
 70
   128
 71
     1
 72
    -2
 73
    24
  0
VERTEX
  5
14F
330
12B
100
AcDbEntity
  8
M-EQPM
 62
   251
420
  4674641
100
AcDbFaceRecord
 10
0.0
 20
0.0
 30
0.0
 70
   128
 71
    20
 72
   -21
 73
    19
  0
VERTEX
  5
150
330
12B
100
AcDbEntity
  8
M-EQPM
 62
   251
420
  4674641
100
AcDbFaceRecord
 10
0.0
 20
0.0
 30
0.0
 70
   128
 71
   -11
 72
    14
 73
   -15
  0
SEQEND
  5
151
330
12B
100
AcDbEntity
  8
M-EQPM
 62
   251
420
  4674641
  0
POLYLINE
  5
152
330
70
100
AcDbEntity
  8
M-EQPM
 62
   251
420
  4674641
100
AcDbPolyFaceMesh
 66
     1
 10
0.0
 20
0.0
 30
0.0
 70
    64
 71
    24
 72
    13
1001
REVIT
1002
{
1070
     1
1000
10288
1002
}
1002
{
1070
     4
1000
3251
1002
}
1002
{
1070
     2
1000
-2001140
1002
}
  0
VERTEX
  5
153
330
152
100
AcDbEntity
  8
M-EQPM
 62
   251
420
  4674641
100
AcDbVertex
100
AcDbPolyFaceMeshVertex
 10
417.4999886512756
 20
0.0
 30
104.0000018835067
 70
   192
  0
VERTEX
  5
154
330
152
100
AcDbEntity
  8
M-EQPM
 62
   251
420
  4674641
100
AcDbVertex
100
AcDbPolyFaceMeshVertex
 10
419.6296188354492
 20
0.0
 30
87.82380902767181
 70
   192
  0
VERTEX
  5
155
330
152
100
AcDbEntity
  8
M-EQPM
 62
   251
420
  4674641
100
AcDbVertex
100
AcDbPolyFaceMeshVertex
 10
425.8734237670898
 20
0.0
 30
72.75000164508821
 70
   192
  0
VERTEX
  5
156
330
152
100
AcDbEntity
  8
M-EQPM
 62
   251
420
  4674641
100
AcDbVertex
100
AcDbPolyFaceMeshVertex
 10
435.8058116912841
 20
0.0
 30
59.80582444667817
 70
   192
  0
VERTEX
  5
157
330
152
100
AcDbEntity
  8
M-EQPM
 62
   251
420
  4674641
100
AcDbVertex
100
AcDbPolyFaceMeshVertex
 10
448.75000705719
 20
0.0
 30
49.87341381311416
 70
   192
  0
VERTEX
  5
158
330
152
100
AcDbEntity
  8
M-EQPM
 62
   251
420
  4674641
100
AcDbVertex
100
AcDbPolyFaceMeshVertex
 10
463.8237962722778
 20
0.0
 30
43.62963613271713
 70
   192
  0
VERTEX
  5
159
330
152
100
AcDbEntity
  8
M-EQPM
 62
   251
420
  4674641
100
AcDbVertex
100
AcDbPolyFaceMeshVertex
 10
479.9999891281128
 20
0.0
 30
41.50000140666961
 70
   192
  0
VERTEX
  5
15A
330
152
100
AcDbEntity
  8
M-EQPM
 62
   251
420
  4674641
100
AcDbVertex
100
AcDbPolyFaceMeshVertex
 10
496.1761819839478
 20
0.0
 30
43.62963613271713
 70
   192
  0
VERTEX
  5
15B
330
152
100
AcDbEntity
  8
M-EQPM
 62
   251
420
  4674641
100
AcDbVertex
100
AcDbPolyFaceMeshVertex
 10
511.2500075340271
 20
0.0
 30
49.87341381311416
 70
   192
  0
VERTEX
  5
15C
330
152
100
AcDbEntity
  8
M-EQPM
 62
   251
420
  4674641
100
AcDbVertex
100
AcDbPolyFaceMeshVertex
 10
524.1941665649413
 20
0.0
 30
59.80582444667817
 70
   192
  0
VERTEX
  5
15D
330
152
100
AcDbEntity
  8
M-EQPM
 62
   251
420
  4674641
100
AcDbVertex
100
AcDbPolyFaceMeshVertex
 10
534.1265908241272
 20
0.0
 30
72.75000164508821
 70
   192
  0
VERTEX
  5
15E
330
152
100
AcDbEntity
  8
M-EQPM
 62
   251
420
  4674641
100
AcDbVertex
100
AcDbPolyFaceMeshVertex
 10
540.3703594207764
 20
0.0
 30
87.82380902767181
 70
   192
  0
VERTEX
  5
15F
330
152
100
AcDbEntity
  8
M-EQPM
 62
   251
420
  4674641
100
AcDbVertex
100
AcDbPolyFaceMeshVertex
 10
542.49998960495
 20
0.0
 30
104.0000018835067
 70
   192
  0
VERTEX
  5
160
330
152
100
AcDbEntity
  8
M-EQPM
 62
   251
420
  4674641
100
AcDbVertex
100
AcDbPolyFaceMeshVertex
 10
540.3703594207764
 20
0.0
 30
120.1761947393417
 70
   192
  0
VERTEX
  5
161
330
152
100
AcDbEntity
  8
M-EQPM
 62
   251
420
  4674641
100
AcDbVertex
100
AcDbPolyFaceMeshVertex
 10
534.1265908241272
 20
0.0
 30
135.2500021219253
 70
   192
  0
VERTEX
  5
162
330
152
100
AcDbEntity
  8
M-EQPM
 62
   251
420
  4674641
100
AcDbVertex
100
AcDbPolyFaceMeshVertex
 10
524.1941665649413
 20
0.0
 30
148.1941702365875
 70
   192
  0
VERTEX
  5
163
330
152
100
AcDbEntity
  8
M-EQPM
 62
   251
420
  4674641
100
AcDbVertex
100
AcDbPolyFaceMeshVertex
 10
511.2500075340271
 20
0.0
 30
158.1265944957733
 70
   192
  0
VERTEX
  5
164
330
152
100
AcDbEntity
  8
M-EQPM
 62
   251
420
  4674641
100
AcDbVertex
100
AcDbPolyFaceMeshVertex
 10
496.1761819839478
 20
0.0
 30
164.3703630924225
 70
   192
  0
VERTEX
  5
165
330
152
100
AcDbEntity
  8
M-EQPM
 62
   251
420
  4674641
100
AcDbVertex
100
AcDbPolyFaceMeshVertex
 10
479.9999891281128
 20
0.0
 30
166.4999932765961
 70
   192
  0
VERTEX
  5
166
330
152
100
AcDbEntity
  8
M-EQPM
 62
   251
420
  4674641
100
AcDbVertex
100
AcDbPolyFaceMeshVertex
 10
463.8237962722778
 20
0.0
 30
164.3703630924225
 70
   192
  0
VERTEX
  5
167
330
152
100
AcDbEntity
  8
M-EQPM
 62
   251
420
  4674641
100
AcDbVertex
100
AcDbPolyFaceMeshVertex
 10
448.75000705719
 20
0.0
 30
158.1265944957733
 70
   192
  0
VERTEX
  5
168
330
152
100
AcDbEntity
  8
M-EQPM
 62
   251
420
  4674641
100
AcDbVertex
100
AcDbPolyFaceMeshVertex
 10
435.8058116912841
 20
0.0
 30
148.1941702365875
 70
   192
  0
VERTEX
  5
169
330
152
100
AcDbEntity
  8
M-EQPM
 62
   251
420
  4674641
100
AcDbVertex
100
AcDbPolyFaceMeshVertex
 10
425.8734237670898
 20
0.0
 30
135.2500021219253
 70
   192
  0
VERTEX
  5
16A
330
152
100
AcDbEntity
  8
M-EQPM
 62
   251
420
  4674641
100
AcDbVertex
100
AcDbPolyFaceMeshVertex
 10
419.6296188354492
 20
0.0
 30
120.1761947393417
 70
   192
  0
VERTEX
  5
16B
330
152
100
AcDbEntity
  8
M-EQPM
 62
   251
420
  4674641
100
AcDbFaceRecord
 10
0.0
 20
0.0
 30
0.0
 70
   128
 71
     7
 72
    -8
 73
   -11
 74
    -5
  0
VERTEX
  5
16C
330
152
100
AcDbEntity
  8
M-EQPM
 62
   251
420
  4674641
100
AcDbFaceRecord
 10
0.0
 20
0.0
 30
0.0
 70
   128
 71
     8
 72
     9
 73
    10
 74
   -11
  0
VERTEX
  5
16D
330
152
100
AcDbEntity
  8
M-EQPM
 62
   251
420
  4674641
100
AcDbFaceRecord
 10
0.0
 20
0.0
 30
0.0
 70
   128
 71
   -11
 72
   -15
 73
    -2
 74
    -5
  0
VERTEX
  5
16E
330
152
100
AcDbEntity
  8
M-EQPM
 62
   251
420
  4674641
100
AcDbFaceRecord
 10
0.0
 20
0.0
 30
0.0
 70
   128
 71
     4
 72
    -5
 73
     2
 74
     3
  0
VERTEX
  5
16F
330
152
100
AcDbEntity
  8
M-EQPM
 62
   251
420
  4674641
100
AcDbFaceRecord
 10
0.0
 20
0.0
 30
0.0
 70
   128
 71
     5
 72
     6
 73
    -7
  0
VERTEX
  5
170
330
152
100
AcDbEntity
  8
M-EQPM
 62
   251
420
  4674641
100
AcDbFaceRecord
 10
0.0
 20
0.0
 30
0.0
 70
   128
 71
    24
 72
     1
 73
    -2
 74
   -22
  0
VERTEX
  5
171
330
152
100
AcDbEntity
  8
M-EQPM
 62
   251
420
  4674641
100
AcDbFaceRecord
 10
0.0
 20
0.0
 30
0.0
 70
   128
 71
   -15
 72
    11
 73
    12
 74
   -13
  0
VERTEX
  5
172
330
152
100
AcDbEntity
  8
M-EQPM
 62
   251
420
  4674641
100
AcDbFaceRecord
 10
0.0
 20
0.0
 30
0.0
 70
   128
 71
    13
 72
    14
 73
   -15
  0
VERTEX
  5
173
330
152
100
AcDbEntity
  8
M-EQPM
 62
   251
420
  4674641
100
AcDbFaceRecord
 10
0.0
 20
0.0
 30
0.0
 70
   128
 71
    -2
 72
   -15
 73
   -18
 74
   -21
  0
VERTEX
  5
174
330
152
100
AcDbEntity
  8
M-EQPM
 62
   251
420
  4674641
100
AcDbFaceRecord
 10
0.0
 20
0.0
 30
0.0
 70
   128
 71
    16
 72
    17
 73
   -18
 74
    15
  0
VERTEX
  5
175
330
152
100
AcDbEntity
  8
M-EQPM
 62
   251
420
  4674641
100
AcDbFaceRecord
 10
0.0
 20
0.0
 30
0.0
 70
   128
 71
   -24
 72
    22
 73
    23
  0
VERTEX
  5
176
330
152
100
AcDbEntity
  8
M-EQPM
 62
   251
420
  4674641
100
AcDbFaceRecord
 10
0.0
 20
0.0
 30
0.0
 70
   128
 71
    20
 72
   -21
 73
    18
 74
    19
  0
VERTEX
  5
177
330
152
100
AcDbEntity
  8
M-EQPM
 62
   251
420
  4674641
100
AcDbFaceRecord
 10
0.0
 20
0.0
 30
0.0
 70
   128
 71
    -2
 72
    21
 73
   -22
  0
SEQEND
  5
178
330
152
100
AcDbEntity
  8
M-EQPM
 62
   251
420
  4674641
  0
POLYLINE
  5
179
330
70
100
AcDbEntity
  8
M-EQPM
 62
   251
420
  4674641
100
AcDbPolyFaceMesh
 66
     1
 10
0.0
 20
0.0
 30
0.0
 70
    64
 71
    26
 72
    12
1001
REVIT
1002
{
1070
     1
1000
10288
1002
}
1002
{
1070
     4
1000
3251
1002
}
1002
{
1070
     2
1000
-2001140
1002
}
  0
VERTEX
  5
17A
330
179
100
AcDbEntity
  8
M-EQPM
 62
   251
420
  4674641
100
AcDbVertex
100
AcDbPolyFaceMeshVertex
 10
542.49998960495
 20
18.45000028610229
 30
104.0000018835067
 70
   192
  0
VERTEX
  5
17B
330
179
100
AcDbEntity
  8
M-EQPM
 62
   251
420
  4674641
100
AcDbVertex
100
AcDbPolyFaceMeshVertex
 10
540.3703594207764
 20
18.45000028610229
 30
120.1761947393417
 70
   192
  0
VERTEX
  5
17C
330
179
100
AcDbEntity
  8
M-EQPM
 62
   251
420
  4674641
100
AcDbVertex
100
AcDbPolyFaceMeshVertex
 10
534.1265908241272
 20
18.45000028610229
 30
135.2500021219253
 70
   192
  0
VERTEX
  5
17D
330
179
100
AcDbEntity
  8
M-EQPM
 62
   251
420
  4674641
100
AcDbVertex
100
AcDbPolyFaceMeshVertex
 10
524.1941665649413
 20
18.45000028610229
 30
148.1941702365875
 70
   192
  0
VERTEX
  5
17E
330
179
100
AcDbEntity
  8
M-EQPM
 62
   251
420
  4674641
100
AcDbVertex
100
AcDbPolyFaceMeshVertex
 10
511.2500075340271
 20
18.45000028610229
 30
158.1265944957733
 70
   192
  0
VERTEX
  5
17F
330
179
100
AcDbEntity
  8
M-EQPM
 62
   251
420
  4674641
100
AcDbVertex
100
AcDbPolyFaceMeshVertex
 10
496.1761819839478
 20
18.45000028610229
 30
164.3703630924225
 70
   192
  0
VERTEX
  5
180
330
179
100
AcDbEntity
  8
M-EQPM
 62
   251
420
  4674641
100
AcDbVertex
100
AcDbPolyFaceMeshVertex
 10
479.9999891281128
 20
18.45000028610229
 30
166.4999932765961
 70
   192
  0
VERTEX
  5
181
330
179
100
AcDbEntity
  8
M-EQPM
 62
   251
420
  4674641
100
AcDbVertex
100
AcDbPolyFaceMeshVertex
 10
463.8237962722778
 20
18.45000028610229
 30
164.3703630924225
 70
   192
  0
VERTEX
  5
182
330
179
100
AcDbEntity
  8
M-EQPM
 62
   251
420
  4674641
100
AcDbVertex
100
AcDbPolyFaceMeshVertex
 10
448.75000705719
 20
18.45000028610229
 30
158.1265944957733
 70
   192
  0
VERTEX
  5
183
330
179
100
AcDbEntity
  8
M-EQPM
 62
   251
420
  4674641
100
AcDbVertex
100
AcDbPolyFaceMeshVertex
 10
435.8058116912841
 20
18.45000028610229
 30
148.1941702365875
 70
   192
  0
VERTEX
  5
184
330
179
100
AcDbEntity
  8
M-EQPM
 62
   251
420
  4674641
100
AcDbVertex
100
AcDbPolyFaceMeshVertex
 10
425.8734237670898
 20
18.45000028610229
 30
135.2500021219253
 70
   192
  0
VERTEX
  5
185
330
179
100
AcDbEntity
  8
M-EQPM
 62
   251
420
  4674641
100
AcDbVertex
100
AcDbPolyFaceMeshVertex
 10
419.6296188354492
 20
18.45000028610229
 30
120.1761947393417
 70
   192
  0
VERTEX
  5
186
330
179
100
AcDbEntity
  8
M-EQPM
 62
   251
420
  4674641
100
AcDbVertex
100
AcDbPolyFaceMeshVertex
 10
417.4999886512756
 20
18.45000028610229
 30
104.0000018835067
 70
   192
  0
VERTEX
  5
187
330
179
100
AcDbEntity
  8
M-EQPM
 62
   251
420
  4674641
100
AcDbVertex
100
AcDbPolyFaceMeshVertex
 10
417.4999886512756
 20
0.0
 30
104.0000018835067
 70
   192
  0
VERTEX
  5
188
330
179
100
AcDbEntity
  8
M-EQPM
 62
   251
420
  4674641
100
AcDbVertex
100
AcDbPolyFaceMeshVertex
 10
419.6296188354492
 20
0.0
 30
120.1761947393417
 70
   192
  0
VERTEX
  5
189
330
179
100
AcDbEntity
  8
M-EQPM
 62
   251
420
  4674641
100
AcDbVertex
100
AcDbPolyFaceMeshVertex
 10
425.8734237670898
 20
0.0
 30
135.2500021219253
 70
   192
  0
VERTEX
  5
18A
330
179
100
AcDbEntity
  8
M-EQPM
 62
   251
420
  4674641
100
AcDbVertex
100
AcDbPolyFaceMeshVertex
 10
435.8058116912841
 20
0.0
 30
148.1941702365875
 70
   192
  0
VERTEX
  5
18B
330
179
100
AcDbEntity
  8
M-EQPM
 62
   251
420
  4674641
100
AcDbVertex
100
AcDbPolyFaceMeshVertex
 10
448.75000705719
 20
0.0
 30
158.1265944957733
 70
   192
  0
VERTEX
  5
18C
330
179
100
AcDbEntity
  8
M-EQPM
 62
   251
420
  4674641
100
AcDbVertex
100
AcDbPolyFaceMeshVertex
 10
463.8237962722778
 20
0.0
 30
164.3703630924225
 70
   192
  0
VERTEX
  5
18D
330
179
100
AcDbEntity
  8
M-EQPM
 62
   251
420
  4674641
100
AcDbVertex
100
AcDbPolyFaceMeshVertex
 10
479.9999891281128
 20
0.0
 30
166.4999932765961
 70
   192
  0
VERTEX
  5
18E
330
179
100
AcDbEntity
  8
M-EQPM
 62
   251
420
  4674641
100
AcDbVertex
100
AcDbPolyFaceMeshVertex
 10
496.1761819839478
 20
0.0
 30
164.3703630924225
 70
   192
  0
VERTEX
  5
18F
330
179
100
AcDbEntity
  8
M-EQPM
 62
   251
420
  4674641
100
AcDbVertex
100
AcDbPolyFaceMeshVertex
 10
511.2500075340271
 20
0.0
 30
158.1265944957733
 70
   192
  0
VERTEX
  5
190
330
179
100
AcDbEntity
  8
M-EQPM
 62
   251
420
  4674641
100
AcDbVertex
100
AcDbPolyFaceMeshVertex
 10
524.1941665649413
 20
0.0
 30
148.1941702365875
 70
   192
  0
VERTEX
  5
191
330
179
100
AcDbEntity
  8
M-EQPM
 62
   251
420
  4674641
100
AcDbVertex
100
AcDbPolyFaceMeshVertex
 10
534.1265908241272
 20
0.0
 30
135.2500021219253
 70
   192
  0
VERTEX
  5
192
330
179
100
AcDbEntity
  8
M-EQPM
 62
   251
420
  4674641
100
AcDbVertex
100
AcDbPolyFaceMeshVertex
 10
540.3703594207764
 20
0.0
 30
120.1761947393417
 70
   192
  0
VERTEX
  5
193
330
179
100
AcDbEntity
  8
M-EQPM
 62
   251
420
  4674641
100
AcDbVertex
100
AcDbPolyFaceMeshVertex
 10
542.49998960495
 20
0.0
 30
104.0000018835067
 70
   192
  0
VERTEX
  5
194
330
179
100
AcDbEntity
  8
M-EQPM
 62
   251
420
  4674641
100
AcDbFaceRecord
 10
0.0
 20
0.0
 30
0.0
 70
   128
 71
    14
 72
   -15
 73
    12
 74
    13
  0
VERTEX
  5
195
330
179
100
AcDbEntity
  8
M-EQPM
 62
   251
420
  4674641
100
AcDbFaceRecord
 10
0.0
 20
0.0
 30
0.0
 70
   128
 71
    15
 72
   -16
 73
    11
 74
   -12
  0
VERTEX
  5
196
330
179
100
AcDbEntity
  8
M-EQPM
 62
   251
420
  4674641
100
AcDbFaceRecord
 10
0.0
 20
0.0
 30
0.0
 70
   128
 71
    17
 72
   -18
 73
     9
 74
   -10
  0
VERTEX
  5
197
330
179
100
AcDbEntity
  8
M-EQPM
 62
   251
420
  4674641
100
AcDbFaceRecord
 10
0.0
 20
0.0
 30
0.0
 70
   128
 71
    16
 72
   -17
 73
    10
 74
   -11
  0
VERTEX
  5
198
330
179
100
AcDbEntity
  8
M-EQPM
 62
   251
420
  4674641
100
AcDbFaceRecord
 10
0.0
 20
0.0
 30
0.0
 70
   128
 71
    18
 72
   -19
 73
     8
 74
    -9
  0
VERTEX
  5
199
330
179
100
AcDbEntity
  8
M-EQPM
 62
   251
420
  4674641
100
AcDbFaceRecord
 10
0.0
 20
0.0
 30
0.0
 70
   128
 71
     7
 72
    -8
 73
    19
 74
   -20
  0
VERTEX
  5
19A
330
179
100
AcDbEntity
  8
M-EQPM
 62
   251
420
  4674641
100
AcDbFaceRecord
 10
0.0
 20
0.0
 30
0.0
 70
   128
 71
    20
 72
   -21
 73
     6
 74
    -7
  0
VERTEX
  5
19B
330
179
100
AcDbEntity
  8
M-EQPM
 62
   251
420
  4674641
100
AcDbFaceRecord
 10
0.0
 20
0.0
 30
0.0
 70
   128
 71
    21
 72
   -22
 73
     5
 74
    -6
  0
VERTEX
  5
19C
330
179
100
AcDbEntity
  8
M-EQPM
 62
   251
420
  4674641
100
AcDbFaceRecord
 10
0.0
 20
0.0
 30
0.0
 70
   128
 71
    23
 72
   -24
 73
     3
 74
    -4
  0
VERTEX
  5
19D
330
179
100
AcDbEntity
  8
M-EQPM
 62
   251
420
  4674641
100
AcDbFaceRecord
 10
0.0
 20
0.0
 30
0.0
 70
   128
 71
    22
 72
   -23
 73
     4
 74
    -5
  0
VERTEX
  5
19E
330
179
100
AcDbEntity
  8
M-EQPM
 62
   251
420
  4674641
100
AcDbFaceRecord
 10
0.0
 20
0.0
 30
0.0
 70
   128
 71
    24
 72
   -25
 73
     2
 74
    -3
  0
VERTEX
  5
19F
330
179
100
AcDbEntity
  8
M-EQPM
 62
   251
420
  4674641
100
AcDbFaceRecord
 10
0.0
 20
0.0
 30
0.0
 70
   128
 71
     1
 72
    -2
 73
    25
 74
    26
  0
SEQEND
  5
1A0
330
179
100
AcDbEntity
  8
M-EQPM
 62
   251
420
  4674641
  0
POLYLINE
  5
1A1
330
70
100
AcDbEntity
  8
M-EQPM
 62
   251
420
  4674641
100
AcDbPolyFaceMesh
 66
     1
 10
0.0
 20
0.0
 30
0.0
 70
    64
 71
    26
 72
    12
1001
REVIT
1002
{
1070
     1
1000
10288
1002
}
1002
{
1070
     4
1000
3251
1002
}
1002
{
1070
     2
1000
-2001140
1002
}
  0
VERTEX
  5
1A2
330
1A1
100
AcDbEntity
  8
M-EQPM
 62
   251
420
  4674641
100
AcDbVertex
100
AcDbPolyFaceMeshVertex
 10
417.4999886512756
 20
18.45000028610229
 30
104.0000018835067
 70
   192
  0
VERTEX
  5
1A3
330
1A1
100
AcDbEntity
  8
M-EQPM
 62
   251
420
  4674641
100
AcDbVertex
100
AcDbPolyFaceMeshVertex
 10
419.6296188354492
 20
18.45000028610229
 30
87.82380902767181
 70
   192
  0
VERTEX
  5
1A4
330
1A1
100
AcDbEntity
  8
M-EQPM
 62
   251
420
  4674641
100
AcDbVertex
100
AcDbPolyFaceMeshVertex
 10
425.8734237670898
 20
18.45000028610229
 30
72.75000164508821
 70
   192
  0
VERTEX
  5
1A5
330
1A1
100
AcDbEntity
  8
M-EQPM
 62
   251
420
  4674641
100
AcDbVertex
100
AcDbPolyFaceMeshVertex
 10
435.8058116912841
 20
18.45000028610229
 30
59.80582444667817
 70
   192
  0
VERTEX
  5
1A6
330
1A1
100
AcDbEntity
  8
M-EQPM
 62
   251
420
  4674641
100
AcDbVertex
100
AcDbPolyFaceMeshVertex
 10
448.75000705719
 20
18.45000028610229
 30
49.87341381311416
 70
   192
  0
VERTEX
  5
1A7
330
1A1
100
AcDbEntity
  8
M-EQPM
 62
   251
420
  4674641
100
AcDbVertex
100
AcDbPolyFaceMeshVertex
 10
463.8237962722778
 20
18.45000028610229
 30
43.62963613271713
 70
   192
  0
VERTEX
  5
1A8
330
1A1
100
AcDbEntity
  8
M-EQPM
 62
   251
420
  4674641
100
AcDbVertex
100
AcDbPolyFaceMeshVertex
 10
479.9999891281128
 20
18.45000028610229
 30
41.50000140666961
 70
   192
  0
VERTEX
  5
1A9
330
1A1
100
AcDbEntity
  8
M-EQPM
 62
   251
420
  4674641
100
AcDbVertex
100
AcDbPolyFaceMeshVertex
 10
496.1761819839478
 20
18.45000028610229
 30
43.62963613271713
 70
   192
  0
VERTEX
  5
1AA
330
1A1
100
AcDbEntity
  8
M-EQPM
 62
   251
420
  4674641
100
AcDbVertex
100
AcDbPolyFaceMeshVertex
 10
511.2500075340271
 20
18.45000028610229
 30
49.87341381311416
 70
   192
  0
VERTEX
  5
1AB
330
1A1
100
AcDbEntity
  8
M-EQPM
 62
   251
420
  4674641
100
AcDbVertex
100
AcDbPolyFaceMeshVertex
 10
524.1941665649413
 20
18.45000028610229
 30
59.80582444667817
 70
   192
  0
VERTEX
  5
1AC
330
1A1
100
AcDbEntity
  8
M-EQPM
 62
   251
420
  4674641
100
AcDbVertex
100
AcDbPolyFaceMeshVertex
 10
534.1265908241272
 20
18.45000028610229
 30
72.75000164508821
 70
   192
  0
VERTEX
  5
1AD
330
1A1
100
AcDbEntity
  8
M-EQPM
 62
   251
420
  4674641
100
AcDbVertex
100
AcDbPolyFaceMeshVertex
 10
540.3703594207764
 20
18.45000028610229
 30
87.82380902767181
 70
   192
  0
VERTEX
  5
1AE
330
1A1
100
AcDbEntity
  8
M-EQPM
 62
   251
420
  4674641
100
AcDbVertex
100
AcDbPolyFaceMeshVertex
 10
542.49998960495
 20
18.45000028610229
 30
104.0000018835067
 70
   192
  0
VERTEX
  5
1AF
330
1A1
100
AcDbEntity
  8
M-EQPM
 62
   251
420
  4674641
100
AcDbVertex
100
AcDbPolyFaceMeshVertex
 10
542.49998960495
 20
0.0
 30
104.0000018835067
 70
   192
  0
VERTEX
  5
1B0
330
1A1
100
AcDbEntity
  8
M-EQPM
 62
   251
420
  4674641
100
AcDbVertex
100
AcDbPolyFaceMeshVertex
 10
540.3703594207764
 20
0.0
 30
87.82380902767181
 70
   192
  0
VERTEX
  5
1B1
330
1A1
100
AcDbEntity
  8
M-EQPM
 62
   251
420
  4674641
100
AcDbVertex
100
AcDbPolyFaceMeshVertex
 10
534.1265908241272
 20
0.0
 30
72.75000164508821
 70
   192
  0
VERTEX
  5
1B2
330
1A1
100
AcDbEntity
  8
M-EQPM
 62
   251
420
  4674641
100
AcDbVertex
100
AcDbPolyFaceMeshVertex
 10
524.1941665649413
 20
0.0
 30
59.80582444667817
 70
   192
  0
VERTEX
  5
1B3
330
1A1
100
AcDbEntity
  8
M-EQPM
 62
   251
420
  4674641
100
AcDbVertex
100
AcDbPolyFaceMeshVertex
 10
511.2500075340271
 20
0.0
 30
49.87341381311416
 70
   192
  0
VERTEX
  5
1B4
330
1A1
100
AcDbEntity
  8
M-EQPM
 62
   251
420
  4674641
100
AcDbVertex
100
AcDbPolyFaceMeshVertex
 10
496.1761819839478
 20
0.0
 30
43.62963613271713
 70
   192
  0
VERTEX
  5
1B5
330
1A1
100
AcDbEntity
  8
M-EQPM
 62
   251
420
  4674641
100
AcDbVertex
100
AcDbPolyFaceMeshVertex
 10
479.9999891281128
 20
0.0
 30
41.50000140666961
 70
   192
  0
VERTEX
  5
1B6
330
1A1
100
AcDbEntity
  8
M-EQPM
 62
   251
420
  4674641
100
AcDbVertex
100
AcDbPolyFaceMeshVertex
 10
463.8237962722778
 20
0.0
 30
43.62963613271713
 70
   192
  0
VERTEX
  5
1B7
330
1A1
100
AcDbEntity
  8
M-EQPM
 62
   251
420
  4674641
100
AcDbVertex
100
AcDbPolyFaceMeshVertex
 10
448.75000705719
 20
0.0
 30
49.87341381311416
 70
   192
  0
VERTEX
  5
1B8
330
1A1
100
AcDbEntity
  8
M-EQPM
 62
   251
420
  4674641
100
AcDbVertex
100
AcDbPolyFaceMeshVertex
 10
435.8058116912841
 20
0.0
 30
59.80582444667817
 70
   192
  0
VERTEX
  5
1B9
330
1A1
100
AcDbEntity
  8
M-EQPM
 62
   251
420
  4674641
100
AcDbVertex
100
AcDbPolyFaceMeshVertex
 10
425.8734237670898
 20
0.0
 30
72.75000164508821
 70
   192
  0
VERTEX
  5
1BA
330
1A1
100
AcDbEntity
  8
M-EQPM
 62
   251
420
  4674641
100
AcDbVertex
100
AcDbPolyFaceMeshVertex
 10
419.6296188354492
 20
0.0
 30
87.82380902767181
 70
   192
  0
VERTEX
  5
1BB
330
1A1
100
AcDbEntity
  8
M-EQPM
 62
   251
420
  4674641
100
AcDbVertex
100
AcDbPolyFaceMeshVertex
 10
417.4999886512756
 20
0.0
 30
104.0000018835067
 70
   192
  0
VERTEX
  5
1BC
330
1A1
100
AcDbEntity
  8
M-EQPM
 62
   251
420
  4674641
100
AcDbFaceRecord
 10
0.0
 20
0.0
 30
0.0
 70
   128
 71
    14
 72
   -15
 73
    12
 74
    13
  0
VERTEX
  5
1BD
330
1A1
100
AcDbEntity
  8
M-EQPM
 62
   251
420
  4674641
100
AcDbFaceRecord
 10
0.0
 20
0.0
 30
0.0
 70
   128
 71
    15
 72
   -16
 73
    11
 74
   -12
  0
VERTEX
  5
1BE
330
1A1
100
AcDbEntity
  8
M-EQPM
 62
   251
420
  4674641
100
AcDbFaceRecord
 10
0.0
 20
0.0
 30
0.0
 70
   128
 71
    17
 72
   -18
 73
     9
 74
   -10
  0
VERTEX
  5
1BF
330
1A1
100
AcDbEntity
  8
M-EQPM
 62
   251
420
  4674641
100
AcDbFaceRecord
 10
0.0
 20
0.0
 30
0.0
 70
   128
 71
    16
 72
   -17
 73
    10
 74
   -11
  0
VERTEX
  5
1C0
330
1A1
100
AcDbEntity
  8
M-EQPM
 62
   251
420
  4674641
100
AcDbFaceRecord
 10
0.0
 20
0.0
 30
0.0
 70
   128
 71
    18
 72
   -19
 73
     8
 74
    -9
  0
VERTEX
  5
1C1
330
1A1
100
AcDbEntity
  8
M-EQPM
 62
   251
420
  4674641
100
AcDbFaceRecord
 10
0.0
 20
0.0
 30
0.0
 70
   128
 71
     7
 72
    -8
 73
    19
 74
   -20
  0
VERTEX
  5
1C2
330
1A1
100
AcDbEntity
  8
M-EQPM
 62
   251
420
  4674641
100
AcDbFaceRecord
 10
0.0
 20
0.0
 30
0.0
 70
   128
 71
    20
 72
   -21
 73
     6
 74
    -7
  0
VERTEX
  5
1C3
330
1A1
100
AcDbEntity
  8
M-EQPM
 62
   251
420
  4674641
100
AcDbFaceRecord
 10
0.0
 20
0.0
 30
0.0
 70
   128
 71
    21
 72
   -22
 73
     5
 74
    -6
  0
VERTEX
  5
1C4
330
1A1
100
AcDbEntity
  8
M-EQPM
 62
   251
420
  4674641
100
AcDbFaceRecord
 10
0.0
 20
0.0
 30
0.0
 70
   128
 71
    23
 72
   -24
 73
     3
 74
    -4
  0
VERTEX
  5
1C5
330
1A1
100
AcDbEntity
  8
M-EQPM
 62
   251
420
  4674641
100
AcDbFaceRecord
 10
0.0
 20
0.0
 30
0.0
 70
   128
 71
    22
 72
   -23
 73
     4
 74
    -5
  0
VERTEX
  5
1C6
330
1A1
100
AcDbEntity
  8
M-EQPM
 62
   251
420
  4674641
100
AcDbFaceRecord
 10
0.0
 20
0.0
 30
0.0
 70
   128
 71
    24
 72
   -25
 73
     2
 74
    -3
  0
VERTEX
  5
1C7
330
1A1
100
AcDbEntity
  8
M-EQPM
 62
   251
420
  4674641
100
AcDbFaceRecord
 10
0.0
 20
0.0
 30
0.0
 70
   128
 71
     1
 72
    -2
 73
    25
 74
    26
  0
SEQEND
  5
1C8
330
1A1
100
AcDbEntity
  8
M-EQPM
 62
   251
420
  4674641
  0
POLYLINE
  5
1C9
330
70
100
AcDbEntity
  8
M-EQPM
 62
   251
420
  4674641
100
AcDbPolyFaceMesh
 66
     1
 10
0.0
 20
0.0
 30
0.0
 70
    64
 71
    24
 72
    13
1001
REVIT
1002
{
1070
     1
1000
10314
1002
}
1002
{
1070
     4
1000
3251
1002
}
1002
{
1070
     2
1000
-2001140
1002
}
  0
VERTEX
  5
1CA
330
1C9
100
AcDbEntity
  8
M-EQPM
 62
   251
420
  4674641
100
AcDbVertex
100
AcDbPolyFaceMeshVertex
 10
-542.49998960495
 20
18.45000028610229
 30
104.0000018835067
 70
   192
  0
VERTEX
  5
1CB
330
1C9
100
AcDbEntity
  8
M-EQPM
 62
   251
420
  4674641
100
AcDbVertex
100
AcDbPolyFaceMeshVertex
 10
-540.3703594207764
 20
18.45000028610229
 30
120.1761947393417
 70
   192
  0
VERTEX
  5
1CC
330
1C9
100
AcDbEntity
  8
M-EQPM
 62
   251
420
  4674641
100
AcDbVertex
100
AcDbPolyFaceMeshVertex
 10
-534.1265908241272
 20
18.45000028610229
 30
135.2500021219253
 70
   192
  0
VERTEX
  5
1CD
330
1C9
100
AcDbEntity
  8
M-EQPM
 62
   251
420
  4674641
100
AcDbVertex
100
AcDbPolyFaceMeshVertex
 10
-524.1941665649413
 20
18.45000028610229
 30
148.1941702365875
 70
   192
  0
VERTEX
  5
1CE
330
1C9
100
AcDbEntity
  8
M-EQPM
 62
   251
420
  4674641
100
AcDbVertex
100
AcDbPolyFaceMeshVertex
 10
-511.2500075340271
 20
18.45000028610229
 30
158.1265944957733
 70
   192
  0
VERTEX
  5
1CF
330
1C9
100
AcDbEntity
  8
M-EQPM
 62
   251
420
  4674641
100
AcDbVertex
100
AcDbPolyFaceMeshVertex
 10
-496.1761819839478
 20
18.45000028610229
 30
164.3703630924225
 70
   192
  0
VERTEX
  5
1D0
330
1C9
100
AcDbEntity
  8
M-EQPM
 62
   251
420
  4674641
100
AcDbVertex
100
AcDbPolyFaceMeshVertex
 10
-479.9999891281128
 20
18.45000028610229
 30
166.4999932765961
 70
   192
  0
VERTEX
  5
1D1
330
1C9
100
AcDbEntity
  8
M-EQPM
 62
   251
420
  4674641
100
AcDbVertex
100
AcDbPolyFaceMeshVertex
 10
-463.8237962722778
 20
18.45000028610229
 30
164.3703630924225
 70
   192
  0
VERTEX
  5
1D2
330
1C9
100
AcDbEntity
  8
M-EQPM
 62
   251
420
  4674641
100
AcDbVertex
100
AcDbPolyFaceMeshVertex
 10
-448.75000705719
 20
18.45000028610229
 30
158.1265944957733
 70
   192
  0
VERTEX
  5
1D3
330
1C9
100
AcDbEntity
  8
M-EQPM
 62
   251
420
  4674641
100
AcDbVertex
100
AcDbPolyFaceMeshVertex
 10
-435.8058116912841
 20
18.45000028610229
 30
148.1941702365875
 70
   192
  0
VERTEX
  5
1D4
330
1C9
100
AcDbEntity
  8
M-EQPM
 62
   251
420
  4674641
100
AcDbVertex
100
AcDbPolyFaceMeshVertex
 10
-425.8734237670898
 20
18.45000028610229
 30
135.2500021219253
 70
   192
  0
VERTEX
  5
1D5
330
1C9
100
AcDbEntity
  8
M-EQPM
 62
   251
420
  4674641
100
AcDbVertex
100
AcDbPolyFaceMeshVertex
 10
-419.6296188354492
 20
18.45000028610229
 30
120.1761947393417
 70
   192
  0
VERTEX
  5
1D6
330
1C9
100
AcDbEntity
  8
M-EQPM
 62
   251
420
  4674641
100
AcDbVertex
100
AcDbPolyFaceMeshVertex
 10
-417.4999886512756
 20
18.45000028610229
 30
104.0000018835067
 70
   192
  0
VERTEX
  5
1D7
330
1C9
100
AcDbEntity
  8
M-EQPM
 62
   251
420
  4674641
100
AcDbVertex
100
AcDbPolyFaceMeshVertex
 10
-419.6296188354492
 20
18.45000028610229
 30
87.82380902767181
 70
   192
  0
VERTEX
  5
1D8
330
1C9
100
AcDbEntity
  8
M-EQPM
 62
   251
420
  4674641
100
AcDbVertex
100
AcDbPolyFaceMeshVertex
 10
-425.8734237670898
 20
18.45000028610229
 30
72.75000164508821
 70
   192
  0
VERTEX
  5
1D9
330
1C9
100
AcDbEntity
  8
M-EQPM
 62
   251
420
  4674641
100
AcDbVertex
100
AcDbPolyFaceMeshVertex
 10
-435.8058116912841
 20
18.45000028610229
 30
59.80582444667817
 70
   192
  0
VERTEX
  5
1DA
330
1C9
100
AcDbEntity
  8
M-EQPM
 62
   251
420
  4674641
100
AcDbVertex
100
AcDbPolyFaceMeshVertex
 10
-448.75000705719
 20
18.45000028610229
 30
49.87341381311416
 70
   192
  0
VERTEX
  5
1DB
330
1C9
100
AcDbEntity
  8
M-EQPM
 62
   251
420
  4674641
100
AcDbVertex
100
AcDbPolyFaceMeshVertex
 10
-463.8237962722778
 20
18.45000028610229
 30
43.62963613271713
 70
   192
  0
VERTEX
  5
1DC
330
1C9
100
AcDbEntity
  8
M-EQPM
 62
   251
420
  4674641
100
AcDbVertex
100
AcDbPolyFaceMeshVertex
 10
-479.9999891281128
 20
18.45000028610229
 30
41.50000140666961
 70
   192
  0
VERTEX
  5
1DD
330
1C9
100
AcDbEntity
  8
M-EQPM
 62
   251
420
  4674641
100
AcDbVertex
100
AcDbPolyFaceMeshVertex
 10
-496.1761819839478
 20
18.45000028610229
 30
43.62963613271713
 70
   192
  0
VERTEX
  5
1DE
330
1C9
100
AcDbEntity
  8
M-EQPM
 62
   251
420
  4674641
100
AcDbVertex
100
AcDbPolyFaceMeshVertex
 10
-511.2500075340271
 20
18.45000028610229
 30
49.87341381311416
 70
   192
  0
VERTEX
  5
1DF
330
1C9
100
AcDbEntity
  8
M-EQPM
 62
   251
420
  4674641
100
AcDbVertex
100
AcDbPolyFaceMeshVertex
 10
-524.1941665649413
 20
18.45000028610229
 30
59.80582444667817
 70
   192
  0
VERTEX
  5
1E0
330
1C9
100
AcDbEntity
  8
M-EQPM
 62
   251
420
  4674641
100
AcDbVertex
100
AcDbPolyFaceMeshVertex
 10
-534.1265908241272
 20
18.45000028610229
 30
72.75000164508821
 70
   192
  0
VERTEX
  5
1E1
330
1C9
100
AcDbEntity
  8
M-EQPM
 62
   251
420
  4674641
100
AcDbVertex
100
AcDbPolyFaceMeshVertex
 10
-540.3703594207764
 20
18.45000028610229
 30
87.82380902767181
 70
   192
  0
VERTEX
  5
1E2
330
1C9
100
AcDbEntity
  8
M-EQPM
 62
   251
420
  4674641
100
AcDbFaceRecord
 10
0.0
 20
0.0
 30
0.0
 70
   128
 71
     8
 72
     9
 73
    10
 74
   -11
  0
VERTEX
  5
1E3
330
1C9
100
AcDbEntity
  8
M-EQPM
 62
   251
420
  4674641
100
AcDbFaceRecord
 10
0.0
 20
0.0
 30
0.0
 70
   128
 71
    11
 72
    12
 73
    13
 74
   -14
  0
VERTEX
  5
1E4
330
1C9
100
AcDbEntity
  8
M-EQPM
 62
   251
420
  4674641
100
AcDbFaceRecord
 10
0.0
 20
0.0
 30
0.0
 70
   128
 71
   -15
 72
    -5
 73
    -8
 74
   -11
  0
VERTEX
  5
1E5
330
1C9
100
AcDbEntity
  8
M-EQPM
 62
   251
420
  4674641
100
AcDbFaceRecord
 10
0.0
 20
0.0
 30
0.0
 70
   128
 71
     6
 72
     7
 73
    -8
 74
     5
  0
VERTEX
  5
1E6
330
1C9
100
AcDbEntity
  8
M-EQPM
 62
   251
420
  4674641
100
AcDbFaceRecord
 10
0.0
 20
0.0
 30
0.0
 70
   128
 71
     2
 72
     3
 73
    -4
 74
   -24
  0
VERTEX
  5
1E7
330
1C9
100
AcDbEntity
  8
M-EQPM
 62
   251
420
  4674641
100
AcDbFaceRecord
 10
0.0
 20
0.0
 30
0.0
 70
   128
 71
   -24
 72
     4
 73
    -5
 74
   -15
  0
VERTEX
  5
1E8
330
1C9
100
AcDbEntity
  8
M-EQPM
 62
   251
420
  4674641
100
AcDbFaceRecord
 10
0.0
 20
0.0
 30
0.0
 70
   128
 71
    15
 72
   -16
 73
    18
 74
   -19
  0
VERTEX
  5
1E9
330
1C9
100
AcDbEntity
  8
M-EQPM
 62
   251
420
  4674641
100
AcDbFaceRecord
 10
0.0
 20
0.0
 30
0.0
 70
   128
 71
   -18
 72
    16
 73
    17
  0
VERTEX
  5
1EA
330
1C9
100
AcDbEntity
  8
M-EQPM
 62
   251
420
  4674641
100
AcDbFaceRecord
 10
0.0
 20
0.0
 30
0.0
 70
   128
 71
   -15
 72
   -19
 73
   -21
 74
   -24
  0
VERTEX
  5
1EB
330
1C9
100
AcDbEntity
  8
M-EQPM
 62
   251
420
  4674641
100
AcDbFaceRecord
 10
0.0
 20
0.0
 30
0.0
 70
   128
 71
    22
 72
    23
 73
   -24
 74
    21
  0
VERTEX
  5
1EC
330
1C9
100
AcDbEntity
  8
M-EQPM
 62
   251
420
  4674641
100
AcDbFaceRecord
 10
0.0
 20
0.0
 30
0.0
 70
   128
 71
     1
 72
    -2
 73
    24
  0
VERTEX
  5
1ED
330
1C9
100
AcDbEntity
  8
M-EQPM
 62
   251
420
  4674641
100
AcDbFaceRecord
 10
0.0
 20
0.0
 30
0.0
 70
   128
 71
    20
 72
   -21
 73
    19
  0
VERTEX
  5
1EE
330
1C9
100
AcDbEntity
  8
M-EQPM
 62
   251
420
  4674641
100
AcDbFaceRecord
 10
0.0
 20
0.0
 30
0.0
 70
   128
 71
   -11
 72
    14
 73
   -15
  0
SEQEND
  5
1EF
330
1C9
100
AcDbEntity
  8
M-EQPM
 62
   251
420
  4674641
  0
POLYLINE
  5
1F0
330
70
100
AcDbEntity
  8
M-EQPM
 62
   251
420
  4674641
100
AcDbPolyFaceMesh
 66
     1
 10
0.0
 20
0.0
 30
0.0
 70
    64
 71
    24
 72
    13
1001
REVIT
1002
{
1070
     1
1000
10314
1002
}
1002
{
1070
     4
1000
3251
1002
}
1002
{
1070
     2
1000
-2001140
1002
}
  0
VERTEX
  5
1F1
330
1F0
100
AcDbEntity
  8
M-EQPM
 62
   251
420
  4674641
100
AcDbVertex
100
AcDbPolyFaceMeshVertex
 10
-542.49998960495
 20
0.0
 30
104.0000018835067
 70
   192
  0
VERTEX
  5
1F2
330
1F0
100
AcDbEntity
  8
M-EQPM
 62
   251
420
  4674641
100
AcDbVertex
100
AcDbPolyFaceMeshVertex
 10
-540.3703594207764
 20
0.0
 30
87.82380902767181
 70
   192
  0
VERTEX
  5
1F3
330
1F0
100
AcDbEntity
  8
M-EQPM
 62
   251
420
  4674641
100
AcDbVertex
100
AcDbPolyFaceMeshVertex
 10
-534.1265908241272
 20
0.0
 30
72.75000164508821
 70
   192
  0
VERTEX
  5
1F4
330
1F0
100
AcDbEntity
  8
M-EQPM
 62
   251
420
  4674641
100
AcDbVertex
100
AcDbPolyFaceMeshVertex
 10
-524.1941665649413
 20
0.0
 30
59.80582444667817
 70
   192
  0
VERTEX
  5
1F5
330
1F0
100
AcDbEntity
  8
M-EQPM
 62
   251
420
  4674641
100
AcDbVertex
100
AcDbPolyFaceMeshVertex
 10
-511.2500075340271
 20
0.0
 30
49.87341381311416
 70
   192
  0
VERTEX
  5
1F6
330
1F0
100
AcDbEntity
  8
M-EQPM
 62
   251
420
  4674641
100
AcDbVertex
100
AcDbPolyFaceMeshVertex
 10
-496.1761819839478
 20
0.0
 30
43.62963613271713
 70
   192
  0
VERTEX
  5
1F7
330
1F0
100
AcDbEntity
  8
M-EQPM
 62
   251
420
  4674641
100
AcDbVertex
100
AcDbPolyFaceMeshVertex
 10
-479.9999891281128
 20
0.0
 30
41.50000140666961
 70
   192
  0
VERTEX
  5
1F8
330
1F0
100
AcDbEntity
  8
M-EQPM
 62
   251
420
  4674641
100
AcDbVertex
100
AcDbPolyFaceMeshVertex
 10
-463.8237962722778
 20
0.0
 30
43.62963613271713
 70
   192
  0
VERTEX
  5
1F9
330
1F0
100
AcDbEntity
  8
M-EQPM
 62
   251
420
  4674641
100
AcDbVertex
100
AcDbPolyFaceMeshVertex
 10
-448.75000705719
 20
0.0
 30
49.87341381311416
 70
   192
  0
VERTEX
  5
1FA
330
1F0
100
AcDbEntity
  8
M-EQPM
 62
   251
420
  4674641
100
AcDbVertex
100
AcDbPolyFaceMeshVertex
 10
-435.8058116912841
 20
0.0
 30
59.80582444667817
 70
   192
  0
VERTEX
  5
1FB
330
1F0
100
AcDbEntity
  8
M-EQPM
 62
   251
420
  4674641
100
AcDbVertex
100
AcDbPolyFaceMeshVertex
 10
-425.8734237670898
 20
0.0
 30
72.75000164508821
 70
   192
  0
VERTEX
  5
1FC
330
1F0
100
AcDbEntity
  8
M-EQPM
 62
   251
420
  4674641
100
AcDbVertex
100
AcDbPolyFaceMeshVertex
 10
-419.6296188354492
 20
0.0
 30
87.82380902767181
 70
   192
  0
VERTEX
  5
1FD
330
1F0
100
AcDbEntity
  8
M-EQPM
 62
   251
420
  4674641
100
AcDbVertex
100
AcDbPolyFaceMeshVertex
 10
-417.4999886512756
 20
0.0
 30
104.0000018835067
 70
   192
  0
VERTEX
  5
1FE
330
1F0
100
AcDbEntity
  8
M-EQPM
 62
   251
420
  4674641
100
AcDbVertex
100
AcDbPolyFaceMeshVertex
 10
-419.6296188354492
 20
0.0
 30
120.1761947393417
 70
   192
  0
VERTEX
  5
1FF
330
1F0
100
AcDbEntity
  8
M-EQPM
 62
   251
420
  4674641
100
AcDbVertex
100
AcDbPolyFaceMeshVertex
 10
-425.8734237670898
 20
0.0
 30
135.2500021219253
 70
   192
  0
VERTEX
  5
200
330
1F0
100
AcDbEntity
  8
M-EQPM
 62
   251
420
  4674641
100
AcDbVertex
100
AcDbPolyFaceMeshVertex
 10
-435.8058116912841
 20
0.0
 30
148.1941702365875
 70
   192
  0
VERTEX
  5
201
330
1F0
100
AcDbEntity
  8
M-EQPM
 62
   251
420
  4674641
100
AcDbVertex
100
AcDbPolyFaceMeshVertex
 10
-448.75000705719
 20
0.0
 30
158.1265944957733
 70
   192
  0
VERTEX
  5
202
330
1F0
100
AcDbEntity
  8
M-EQPM
 62
   251
420
  4674641
100
AcDbVertex
100
AcDbPolyFaceMeshVertex
 10
-463.8237962722778
 20
0.0
 30
164.3703630924225
 70
   192
  0
VERTEX
  5
203
330
1F0
100
AcDbEntity
  8
M-EQPM
 62
   251
420
  4674641
100
AcDbVertex
100
AcDbPolyFaceMeshVertex
 10
-479.9999891281128
 20
0.0
 30
166.4999932765961
 70
   192
  0
VERTEX
  5
204
330
1F0
100
AcDbEntity
  8
M-EQPM
 62
   251
420
  4674641
100
AcDbVertex
100
AcDbPolyFaceMeshVertex
 10
-496.1761819839478
 20
0.0
 30
164.3703630924225
 70
   192
  0
VERTEX
  5
205
330
1F0
100
AcDbEntity
  8
M-EQPM
 62
   251
420
  4674641
100
AcDbVertex
100
AcDbPolyFaceMeshVertex
 10
-511.2500075340271
 20
0.0
 30
158.1265944957733
 70
   192
  0
VERTEX
  5
206
330
1F0
100
AcDbEntity
  8
M-EQPM
 62
   251
420
  4674641
100
AcDbVertex
100
AcDbPolyFaceMeshVertex
 10
-524.1941665649413
 20
0.0
 30
148.1941702365875
 70
   192
  0
VERTEX
  5
207
330
1F0
100
AcDbEntity
  8
M-EQPM
 62
   251
420
  4674641
100
AcDbVertex
100
AcDbPolyFaceMeshVertex
 10
-534.1265908241272
 20
0.0
 30
135.2500021219253
 70
   192
  0
VERTEX
  5
208
330
1F0
100
AcDbEntity
  8
M-EQPM
 62
   251
420
  4674641
100
AcDbVertex
100
AcDbPolyFaceMeshVertex
 10
-540.3703594207764
 20
0.0
 30
120.1761947393417
 70
   192
  0
VERTEX
  5
209
330
1F0
100
AcDbEntity
  8
M-EQPM
 62
   251
420
  4674641
100
AcDbFaceRecord
 10
0.0
 20
0.0
 30
0.0
 70
   128
 71
     7
 72
    -8
 73
   -11
 74
    -5
  0
VERTEX
  5
20A
330
1F0
100
AcDbEntity
  8
M-EQPM
 62
   251
420
  4674641
100
AcDbFaceRecord
 10
0.0
 20
0.0
 30
0.0
 70
   128
 71
     8
 72
     9
 73
    10
 74
   -11
  0
VERTEX
  5
20B
330
1F0
100
AcDbEntity
  8
M-EQPM
 62
   251
420
  4674641
100
AcDbFaceRecord
 10
0.0
 20
0.0
 30
0.0
 70
   128
 71
   -11
 72
   -15
 73
    -2
 74
    -5
  0
VERTEX
  5
20C
330
1F0
100
AcDbEntity
  8
M-EQPM
 62
   251
420
  4674641
100
AcDbFaceRecord
 10
0.0
 20
0.0
 30
0.0
 70
   128
 71
     4
 72
    -5
 73
     2
 74
     3
  0
VERTEX
  5
20D
330
1F0
100
AcDbEntity
  8
M-EQPM
 62
   251
420
  4674641
100
AcDbFaceRecord
 10
0.0
 20
0.0
 30
0.0
 70
   128
 71
     5
 72
     6
 73
    -7
  0
VERTEX
  5
20E
330
1F0
100
AcDbEntity
  8
M-EQPM
 62
   251
420
  4674641
100
AcDbFaceRecord
 10
0.0
 20
0.0
 30
0.0
 70
   128
 71
    24
 72
     1
 73
    -2
 74
   -22
  0
VERTEX
  5
20F
330
1F0
100
AcDbEntity
  8
M-EQPM
 62
   251
420
  4674641
100
AcDbFaceRecord
 10
0.0
 20
0.0
 30
0.0
 70
   128
 71
   -15
 72
    11
 73
    12
 74
   -13
  0
VERTEX
  5
210
330
1F0
100
AcDbEntity
  8
M-EQPM
 62
   251
420
  4674641
100
AcDbFaceRecord
 10
0.0
 20
0.0
 30
0.0
 70
   128
 71
    13
 72
    14
 73
   -15
  0
VERTEX
  5
211
330
1F0
100
AcDbEntity
  8
M-EQPM
 62
   251
420
  4674641
100
AcDbFaceRecord
 10
0.0
 20
0.0
 30
0.0
 70
   128
 71
    -2
 72
   -15
 73
   -18
 74
   -21
  0
VERTEX
  5
212
330
1F0
100
AcDbEntity
  8
M-EQPM
 62
   251
420
  4674641
100
AcDbFaceRecord
 10
0.0
 20
0.0
 30
0.0
 70
   128
 71
    16
 72
    17
 73
   -18
 74
    15
  0
VERTEX
  5
213
330
1F0
100
AcDbEntity
  8
M-EQPM
 62
   251
420
  4674641
100
AcDbFaceRecord
 10
0.0
 20
0.0
 30
0.0
 70
   128
 71
   -24
 72
    22
 73
    23
  0
VERTEX
  5
214
330
1F0
100
AcDbEntity
  8
M-EQPM
 62
   251
420
  4674641
100
AcDbFaceRecord
 10
0.0
 20
0.0
 30
0.0
 70
   128
 71
    20
 72
   -21
 73
    18
 74
    19
  0
VERTEX
  5
215
330
1F0
100
AcDbEntity
  8
M-EQPM
 62
   251
420
  4674641
100
AcDbFaceRecord
 10
0.0
 20
0.0
 30
0.0
 70
   128
 71
    -2
 72
    21
 73
   -22
  0
SEQEND
  5
216
330
1F0
100
AcDbEntity
  8
M-EQPM
 62
   251
420
  4674641
  0
POLYLINE
  5
217
330
70
100
AcDbEntity
  8
M-EQPM
 62
   251
420
  4674641
100
AcDbPolyFaceMesh
 66
     1
 10
0.0
 20
0.0
 30
0.0
 70
    64
 71
    26
 72
    12
1001
REVIT
1002
{
1070
     1
1000
10314
1002
}
1002
{
1070
     4
1000
3251
1002
}
1002
{
1070
     2
1000
-2001140
1002
}
  0
VERTEX
  5
218
330
217
100
AcDbEntity
  8
M-EQPM
 62
   251
420
  4674641
100
AcDbVertex
100
AcDbPolyFaceMeshVertex
 10
-417.4999886512756
 20
18.45000028610229
 30
104.0000018835067
 70
   192
  0
VERTEX
  5
219
330
217
100
AcDbEntity
  8
M-EQPM
 62
   251
420
  4674641
100
AcDbVertex
100
AcDbPolyFaceMeshVertex
 10
-419.6296188354492
 20
18.45000028610229
 30
120.1761947393417
 70
   192
  0
VERTEX
  5
21A
330
217
100
AcDbEntity
  8
M-EQPM
 62
   251
420
  4674641
100
AcDbVertex
100
AcDbPolyFaceMeshVertex
 10
-425.8734237670898
 20
18.45000028610229
 30
135.2500021219253
 70
   192
  0
VERTEX
  5
21B
330
217
100
AcDbEntity
  8
M-EQPM
 62
   251
420
  4674641
100
AcDbVertex
100
AcDbPolyFaceMeshVertex
 10
-435.8058116912841
 20
18.45000028610229
 30
148.1941702365875
 70
   192
  0
VERTEX
  5
21C
330
217
100
AcDbEntity
  8
M-EQPM
 62
   251
420
  4674641
100
AcDbVertex
100
AcDbPolyFaceMeshVertex
 10
-448.75000705719
 20
18.45000028610229
 30
158.1265944957733
 70
   192
  0
VERTEX
  5
21D
330
217
100
AcDbEntity
  8
M-EQPM
 62
   251
420
  4674641
100
AcDbVertex
100
AcDbPolyFaceMeshVertex
 10
-463.8237962722778
 20
18.45000028610229
 30
164.3703630924225
 70
   192
  0
VERTEX
  5
21E
330
217
100
AcDbEntity
  8
M-EQPM
 62
   251
420
  4674641
100
AcDbVertex
100
AcDbPolyFaceMeshVertex
 10
-479.9999891281128
 20
18.45000028610229
 30
166.4999932765961
 70
   192
  0
VERTEX
  5
21F
330
217
100
AcDbEntity
  8
M-EQPM
 62
   251
420
  4674641
100
AcDbVertex
100
AcDbPolyFaceMeshVertex
 10
-496.1761819839478
 20
18.45000028610229
 30
164.3703630924225
 70
   192
  0
VERTEX
  5
220
330
217
100
AcDbEntity
  8
M-EQPM
 62
   251
420
  4674641
100
AcDbVertex
100
AcDbPolyFaceMeshVertex
 10
-511.2500075340271
 20
18.45000028610229
 30
158.1265944957733
 70
   192
  0
VERTEX
  5
221
330
217
100
AcDbEntity
  8
M-EQPM
 62
   251
420
  4674641
100
AcDbVertex
100
AcDbPolyFaceMeshVertex
 10
-524.1941665649413
 20
18.45000028610229
 30
148.1941702365875
 70
   192
  0
VERTEX
  5
222
330
217
100
AcDbEntity
  8
M-EQPM
 62
   251
420
  4674641
100
AcDbVertex
100
AcDbPolyFaceMeshVertex
 10
-534.1265908241272
 20
18.45000028610229
 30
135.2500021219253
 70
   192
  0
VERTEX
  5
223
330
217
100
AcDbEntity
  8
M-EQPM
 62
   251
420
  4674641
100
AcDbVertex
100
AcDbPolyFaceMeshVertex
 10
-540.3703594207764
 20
18.45000028610229
 30
120.1761947393417
 70
   192
  0
VERTEX
  5
224
330
217
100
AcDbEntity
  8
M-EQPM
 62
   251
420
  4674641
100
AcDbVertex
100
AcDbPolyFaceMeshVertex
 10
-542.49998960495
 20
18.45000028610229
 30
104.0000018835067
 70
   192
  0
VERTEX
  5
225
330
217
100
AcDbEntity
  8
M-EQPM
 62
   251
420
  4674641
100
AcDbVertex
100
AcDbPolyFaceMeshVertex
 10
-542.49998960495
 20
0.0
 30
104.0000018835067
 70
   192
  0
VERTEX
  5
226
330
217
100
AcDbEntity
  8
M-EQPM
 62
   251
420
  4674641
100
AcDbVertex
100
AcDbPolyFaceMeshVertex
 10
-540.3703594207764
 20
0.0
 30
120.1761947393417
 70
   192
  0
VERTEX
  5
227
330
217
100
AcDbEntity
  8
M-EQPM
 62
   251
420
  4674641
100
AcDbVertex
100
AcDbPolyFaceMeshVertex
 10
-534.1265908241272
 20
0.0
 30
135.2500021219253
 70
   192
  0
VERTEX
  5
228
330
217
100
AcDbEntity
  8
M-EQPM
 62
   251
420
  4674641
100
AcDbVertex
100
AcDbPolyFaceMeshVertex
 10
-524.1941665649413
 20
0.0
 30
148.1941702365875
 70
   192
  0
VERTEX
  5
229
330
217
100
AcDbEntity
  8
M-EQPM
 62
   251
420
  4674641
100
AcDbVertex
100
AcDbPolyFaceMeshVertex
 10
-511.2500075340271
 20
0.0
 30
158.1265944957733
 70
   192
  0
VERTEX
  5
22A
330
217
100
AcDbEntity
  8
M-EQPM
 62
   251
420
  4674641
100
AcDbVertex
100
AcDbPolyFaceMeshVertex
 10
-496.1761819839478
 20
0.0
 30
164.3703630924225
 70
   192
  0
VERTEX
  5
22B
330
217
100
AcDbEntity
  8
M-EQPM
 62
   251
420
  4674641
100
AcDbVertex
100
AcDbPolyFaceMeshVertex
 10
-479.9999891281128
 20
0.0
 30
166.4999932765961
 70
   192
  0
VERTEX
  5
22C
330
217
100
AcDbEntity
  8
M-EQPM
 62
   251
420
  4674641
100
AcDbVertex
100
AcDbPolyFaceMeshVertex
 10
-463.8237962722778
 20
0.0
 30
164.3703630924225
 70
   192
  0
VERTEX
  5
22D
330
217
100
AcDbEntity
  8
M-EQPM
 62
   251
420
  4674641
100
AcDbVertex
100
AcDbPolyFaceMeshVertex
 10
-448.75000705719
 20
0.0
 30
158.1265944957733
 70
   192
  0
VERTEX
  5
22E
330
217
100
AcDbEntity
  8
M-EQPM
 62
   251
420
  4674641
100
AcDbVertex
100
AcDbPolyFaceMeshVertex
 10
-435.8058116912841
 20
0.0
 30
148.1941702365875
 70
   192
  0
VERTEX
  5
22F
330
217
100
AcDbEntity
  8
M-EQPM
 62
   251
420
  4674641
100
AcDbVertex
100
AcDbPolyFaceMeshVertex
 10
-425.8734237670898
 20
0.0
 30
135.2500021219253
 70
   192
  0
VERTEX
  5
230
330
217
100
AcDbEntity
  8
M-EQPM
 62
   251
420
  4674641
100
AcDbVertex
100
AcDbPolyFaceMeshVertex
 10
-419.6296188354492
 20
0.0
 30
120.1761947393417
 70
   192
  0
VERTEX
  5
231
330
217
100
AcDbEntity
  8
M-EQPM
 62
   251
420
  4674641
100
AcDbVertex
100
AcDbPolyFaceMeshVertex
 10
-417.4999886512756
 20
0.0
 30
104.0000018835067
 70
   192
  0
VERTEX
  5
232
330
217
100
AcDbEntity
  8
M-EQPM
 62
   251
420
  4674641
100
AcDbFaceRecord
 10
0.0
 20
0.0
 30
0.0
 70
   128
 71
    14
 72
   -15
 73
    12
 74
    13
  0
VERTEX
  5
233
330
217
100
AcDbEntity
  8
M-EQPM
 62
   251
420
  4674641
100
AcDbFaceRecord
 10
0.0
 20
0.0
 30
0.0
 70
   128
 71
    15
 72
   -16
 73
    11
 74
   -12
  0
VERTEX
  5
234
330
217
100
AcDbEntity
  8
M-EQPM
 62
   251
420
  4674641
100
AcDbFaceRecord
 10
0.0
 20
0.0
 30
0.0
 70
   128
 71
    17
 72
   -18
 73
     9
 74
   -10
  0
VERTEX
  5
235
330
217
100
AcDbEntity
  8
M-EQPM
 62
   251
420
  4674641
100
AcDbFaceRecord
 10
0.0
 20
0.0
 30
0.0
 70
   128
 71
    16
 72
   -17
 73
    10
 74
   -11
  0
VERTEX
  5
236
330
217
100
AcDbEntity
  8
M-EQPM
 62
   251
420
  4674641
100
AcDbFaceRecord
 10
0.0
 20
0.0
 30
0.0
 70
   128
 71
    18
 72
   -19
 73
     8
 74
    -9
  0
VERTEX
  5
237
330
217
100
AcDbEntity
  8
M-EQPM
 62
   251
420
  4674641
100
AcDbFaceRecord
 10
0.0
 20
0.0
 30
0.0
 70
   128
 71
     7
 72
    -8
 73
    19
 74
   -20
  0
VERTEX
  5
238
330
217
100
AcDbEntity
  8
M-EQPM
 62
   251
420
  4674641
100
AcDbFaceRecord
 10
0.0
 20
0.0
 30
0.0
 70
   128
 71
    20
 72
   -21
 73
     6
 74
    -7
  0
VERTEX
  5
239
330
217
100
AcDbEntity
  8
M-EQPM
 62
   251
420
  4674641
100
AcDbFaceRecord
 10
0.0
 20
0.0
 30
0.0
 70
   128
 71
    21
 72
   -22
 73
     5
 74
    -6
  0
VERTEX
  5
23A
330
217
100
AcDbEntity
  8
M-EQPM
 62
   251
420
  4674641
100
AcDbFaceRecord
 10
0.0
 20
0.0
 30
0.0
 70
   128
 71
    23
 72
   -24
 73
     3
 74
    -4
  0
VERTEX
  5
23B
330
217
100
AcDbEntity
  8
M-EQPM
 62
   251
420
  4674641
100
AcDbFaceRecord
 10
0.0
 20
0.0
 30
0.0
 70
   128
 71
    22
 72
   -23
 73
     4
 74
    -5
  0
VERTEX
  5
23C
330
217
100
AcDbEntity
  8
M-EQPM
 62
   251
420
  4674641
100
AcDbFaceRecord
 10
0.0
 20
0.0
 30
0.0
 70
   128
 71
    24
 72
   -25
 73
     2
 74
    -3
  0
VERTEX
  5
23D
330
217
100
AcDbEntity
  8
M-EQPM
 62
   251
420
  4674641
100
AcDbFaceRecord
 10
0.0
 20
0.0
 30
0.0
 70
   128
 71
     1
 72
    -2
 73
    25
 74
    26
  0
SEQEND
  5
23E
330
217
100
AcDbEntity
  8
M-EQPM
 62
   251
420
  4674641
  0
POLYLINE
  5
23F
330
70
100
AcDbEntity
  8
M-EQPM
 62
   251
420
  4674641
100
AcDbPolyFaceMesh
 66
     1
 10
0.0
 20
0.0
 30
0.0
 70
    64
 71
    26
 72
    12
1001
REVIT
1002
{
1070
     1
1000
10314
1002
}
1002
{
1070
     4
1000
3251
1002
}
1002
{
1070
     2
1000
-2001140
1002
}
  0
VERTEX
  5
240
330
23F
100
AcDbEntity
  8
M-EQPM
 62
   251
420
  4674641
100
AcDbVertex
100
AcDbPolyFaceMeshVertex
 10
-542.49998960495
 20
18.45000028610229
 30
104.0000018835067
 70
   192
  0
VERTEX
  5
241
330
23F
100
AcDbEntity
  8
M-EQPM
 62
   251
420
  4674641
100
AcDbVertex
100
AcDbPolyFaceMeshVertex
 10
-540.3703594207764
 20
18.45000028610229
 30
87.82380902767181
 70
   192
  0
VERTEX
  5
242
330
23F
100
AcDbEntity
  8
M-EQPM
 62
   251
420
  4674641
100
AcDbVertex
100
AcDbPolyFaceMeshVertex
 10
-534.1265908241272
 20
18.45000028610229
 30
72.75000164508821
 70
   192
  0
VERTEX
  5
243
330
23F
100
AcDbEntity
  8
M-EQPM
 62
   251
420
  4674641
100
AcDbVertex
100
AcDbPolyFaceMeshVertex
 10
-524.1941665649413
 20
18.45000028610229
 30
59.80582444667817
 70
   192
  0
VERTEX
  5
244
330
23F
100
AcDbEntity
  8
M-EQPM
 62
   251
420
  4674641
100
AcDbVertex
100
AcDbPolyFaceMeshVertex
 10
-511.2500075340271
 20
18.45000028610229
 30
49.87341381311416
 70
   192
  0
VERTEX
  5
245
330
23F
100
AcDbEntity
  8
M-EQPM
 62
   251
420
  4674641
100
AcDbVertex
100
AcDbPolyFaceMeshVertex
 10
-496.1761819839478
 20
18.45000028610229
 30
43.62963613271713
 70
   192
  0
VERTEX
  5
246
330
23F
100
AcDbEntity
  8
M-EQPM
 62
   251
420
  4674641
100
AcDbVertex
100
AcDbPolyFaceMeshVertex
 10
-479.9999891281128
 20
18.45000028610229
 30
41.50000140666961
 70
   192
  0
VERTEX
  5
247
330
23F
100
AcDbEntity
  8
M-EQPM
 62
   251
420
  4674641
100
AcDbVertex
100
AcDbPolyFaceMeshVertex
 10
-463.8237962722778
 20
18.45000028610229
 30
43.62963613271713
 70
   192
  0
VERTEX
  5
248
330
23F
100
AcDbEntity
  8
M-EQPM
 62
   251
420
  4674641
100
AcDbVertex
100
AcDbPolyFaceMeshVertex
 10
-448.75000705719
 20
18.45000028610229
 30
49.87341381311416
 70
   192
  0
VERTEX
  5
249
330
23F
100
AcDbEntity
  8
M-EQPM
 62
   251
420
  4674641
100
AcDbVertex
100
AcDbPolyFaceMeshVertex
 10
-435.8058116912841
 20
18.45000028610229
 30
59.80582444667817
 70
   192
  0
VERTEX
  5
24A
330
23F
100
AcDbEntity
  8
M-EQPM
 62
   251
420
  4674641
100
AcDbVertex
100
AcDbPolyFaceMeshVertex
 10
-425.8734237670898
 20
18.45000028610229
 30
72.75000164508821
 70
   192
  0
VERTEX
  5
24B
330
23F
100
AcDbEntity
  8
M-EQPM
 62
   251
420
  4674641
100
AcDbVertex
100
AcDbPolyFaceMeshVertex
 10
-419.6296188354492
 20
18.45000028610229
 30
87.82380902767181
 70
   192
  0
VERTEX
  5
24C
330
23F
100
AcDbEntity
  8
M-EQPM
 62
   251
420
  4674641
100
AcDbVertex
100
AcDbPolyFaceMeshVertex
 10
-417.4999886512756
 20
18.45000028610229
 30
104.0000018835067
 70
   192
  0
VERTEX
  5
24D
330
23F
100
AcDbEntity
  8
M-EQPM
 62
   251
420
  4674641
100
AcDbVertex
100
AcDbPolyFaceMeshVertex
 10
-417.4999886512756
 20
0.0
 30
104.0000018835067
 70
   192
  0
VERTEX
  5
24E
330
23F
100
AcDbEntity
  8
M-EQPM
 62
   251
420
  4674641
100
AcDbVertex
100
AcDbPolyFaceMeshVertex
 10
-419.6296188354492
 20
0.0
 30
87.82380902767181
 70
   192
  0
VERTEX
  5
24F
330
23F
100
AcDbEntity
  8
M-EQPM
 62
   251
420
  4674641
100
AcDbVertex
100
AcDbPolyFaceMeshVertex
 10
-425.8734237670898
 20
0.0
 30
72.75000164508821
 70
   192
  0
VERTEX
  5
250
330
23F
100
AcDbEntity
  8
M-EQPM
 62
   251
420
  4674641
100
AcDbVertex
100
AcDbPolyFaceMeshVertex
 10
-435.8058116912841
 20
0.0
 30
59.80582444667817
 70
   192
  0
VERTEX
  5
251
330
23F
100
AcDbEntity
  8
M-EQPM
 62
   251
420
  4674641
100
AcDbVertex
100
AcDbPolyFaceMeshVertex
 10
-448.75000705719
 20
0.0
 30
49.87341381311416
 70
   192
  0
VERTEX
  5
252
330
23F
100
AcDbEntity
  8
M-EQPM
 62
   251
420
  4674641
100
AcDbVertex
100
AcDbPolyFaceMeshVertex
 10
-463.8237962722778
 20
0.0
 30
43.62963613271713
 70
   192
  0
VERTEX
  5
253
330
23F
100
AcDbEntity
  8
M-EQPM
 62
   251
420
  4674641
100
AcDbVertex
100
AcDbPolyFaceMeshVertex
 10
-479.9999891281128
 20
0.0
 30
41.50000140666961
 70
   192
  0
VERTEX
  5
254
330
23F
100
AcDbEntity
  8
M-EQPM
 62
   251
420
  4674641
100
AcDbVertex
100
AcDbPolyFaceMeshVertex
 10
-496.1761819839478
 20
0.0
 30
43.62963613271713
 70
   192
  0
VERTEX
  5
255
330
23F
100
AcDbEntity
  8
M-EQPM
 62
   251
420
  4674641
100
AcDbVertex
100
AcDbPolyFaceMeshVertex
 10
-511.2500075340271
 20
0.0
 30
49.87341381311416
 70
   192
  0
VERTEX
  5
256
330
23F
100
AcDbEntity
  8
M-EQPM
 62
   251
420
  4674641
100
AcDbVertex
100
AcDbPolyFaceMeshVertex
 10
-524.1941665649413
 20
0.0
 30
59.80582444667817
 70
   192
  0
VERTEX
  5
257
330
23F
100
AcDbEntity
  8
M-EQPM
 62
   251
420
  4674641
100
AcDbVertex
100
AcDbPolyFaceMeshVertex
 10
-534.1265908241272
 20
0.0
 30
72.75000164508821
 70
   192
  0
VERTEX
  5
258
330
23F
100
AcDbEntity
  8
M-EQPM
 62
   251
420
  4674641
100
AcDbVertex
100
AcDbPolyFaceMeshVertex
 10
-540.3703594207764
 20
0.0
 30
87.82380902767181
 70
   192
  0
VERTEX
  5
259
330
23F
100
AcDbEntity
  8
M-EQPM
 62
   251
420
  4674641
100
AcDbVertex
100
AcDbPolyFaceMeshVertex
 10
-542.49998960495
 20
0.0
 30
104.0000018835067
 70
   192
  0
VERTEX
  5
25A
330
23F
100
AcDbEntity
  8
M-EQPM
 62
   251
420
  4674641
100
AcDbFaceRecord
 10
0.0
 20
0.0
 30
0.0
 70
   128
 71
    14
 72
   -15
 73
    12
 74
    13
  0
VERTEX
  5
25B
330
23F
100
AcDbEntity
  8
M-EQPM
 62
   251
420
  4674641
100
AcDbFaceRecord
 10
0.0
 20
0.0
 30
0.0
 70
   128
 71
    15
 72
   -16
 73
    11
 74
   -12
  0
VERTEX
  5
25C
330
23F
100
AcDbEntity
  8
M-EQPM
 62
   251
420
  4674641
100
AcDbFaceRecord
 10
0.0
 20
0.0
 30
0.0
 70
   128
 71
    17
 72
   -18
 73
     9
 74
   -10
  0
VERTEX
  5
25D
330
23F
100
AcDbEntity
  8
M-EQPM
 62
   251
420
  4674641
100
AcDbFaceRecord
 10
0.0
 20
0.0
 30
0.0
 70
   128
 71
    16
 72
   -17
 73
    10
 74
   -11
  0
VERTEX
  5
25E
330
23F
100
AcDbEntity
  8
M-EQPM
 62
   251
420
  4674641
100
AcDbFaceRecord
 10
0.0
 20
0.0
 30
0.0
 70
   128
 71
    18
 72
   -19
 73
     8
 74
    -9
  0
VERTEX
  5
25F
330
23F
100
AcDbEntity
  8
M-EQPM
 62
   251
420
  4674641
100
AcDbFaceRecord
 10
0.0
 20
0.0
 30
0.0
 70
   128
 71
     7
 72
    -8
 73
    19
 74
   -20
  0
VERTEX
  5
260
330
23F
100
AcDbEntity
  8
M-EQPM
 62
   251
420
  4674641
100
AcDbFaceRecord
 10
0.0
 20
0.0
 30
0.0
 70
   128
 71
    20
 72
   -21
 73
     6
 74
    -7
  0
VERTEX
  5
261
330
23F
100
AcDbEntity
  8
M-EQPM
 62
   251
420
  4674641
100
AcDbFaceRecord
 10
0.0
 20
0.0
 30
0.0
 70
   128
 71
    21
 72
   -22
 73
     5
 74
    -6
  0
VERTEX
  5
262
330
23F
100
AcDbEntity
  8
M-EQPM
 62
   251
420
  4674641
100
AcDbFaceRecord
 10
0.0
 20
0.0
 30
0.0
 70
   128
 71
    23
 72
   -24
 73
     3
 74
    -4
  0
VERTEX
  5
263
330
23F
100
AcDbEntity
  8
M-EQPM
 62
   251
420
  4674641
100
AcDbFaceRecord
 10
0.0
 20
0.0
 30
0.0
 70
   128
 71
    22
 72
   -23
 73
     4
 74
    -5
  0
VERTEX
  5
264
330
23F
100
AcDbEntity
  8
M-EQPM
 62
   251
420
  4674641
100
AcDbFaceRecord
 10
0.0
 20
0.0
 30
0.0
 70
   128
 71
    24
 72
   -25
 73
     2
 74
    -3
  0
VERTEX
  5
265
330
23F
100
AcDbEntity
  8
M-EQPM
 62
   251
420
  4674641
100
AcDbFaceRecord
 10
0.0
 20
0.0
 30
0.0
 70
   128
 71
     1
 72
    -2
 73
    25
 74
    26
  0
SEQEND
  5
266
330
23F
100
AcDbEntity
  8
M-EQPM
 62
   251
420
  4674641
  0
POLYLINE
  5
267
330
70
100
AcDbEntity
  8
M-EQPM
 62
     7
420
 13434879
440
 33554529
370
    50
100
AcDbPolyFaceMesh
 66
     1
 10
0.0
 20
0.0
 30
0.0
 70
    64
 71
     4
 72
     1
1001
REVIT
1002
{
1070
     1
1000
11514
1002
}
1002
{
1070
     4
1000
252
1002
}
1002
{
1070
     2
1000
-2001140
1002
}
1002
{
1070
     3
1000
11945
1002
}
  0
VERTEX
  5
268
330
267
100
AcDbEntity
  8
M-EQPM
 62
     7
420
 13434879
440
 33554529
370
    50
100
AcDbVertex
100
AcDbPolyFaceMeshVertex
 10
-585.0000117301942
 20
0.0
 30
-0.0000000000006463
 70
   192
  0
VERTEX
  5
269
330
267
100
AcDbEntity
  8
M-EQPM
 62
     7
420
 13434879
440
 33554529
370
    50
100
AcDbVertex
100
AcDbPolyFaceMeshVertex
 10
-585.0000117301942
 20
-570.9999941825866
 30
-0.0000000000006463
 70
   192
  0
VERTEX
  5
26A
330
267
100
AcDbEntity
  8
M-EQPM
 62
     7
420
 13434879
440
 33554529
370
    50
100
AcDbVertex
100
AcDbPolyFaceMeshVertex
 10
585.0000117301942
 20
-570.9999941825866
 30
-0.0000000000044318
 70
   192
  0
VERTEX
  5
26B
330
267
100
AcDbEntity
  8
M-EQPM
 62
     7
420
 13434879
440
 33554529
370
    50
100
AcDbVertex
100
AcDbPolyFaceMeshVertex
 10
585.0000117301942
 20
0.0
 30
-0.0000000000044318
 70
   192
  0
VERTEX
  5
26C
330
267
100
AcDbEntity
  8
M-EQPM
 62
     7
420
 13434879
440
 33554529
370
    50
100
AcDbFaceRecord
 10
0.0
 20
0.0
 30
0.0
 70
   128
 71
     1
 72
     2
 73
     3
 74
     4
  0
SEQEND
  5
26D
330
267
100
AcDbEntity
  8
M-EQPM
 62
     7
420
 13434879
440
 33554529
370
    50
  0
POLYLINE
  5
26E
330
70
100
AcDbEntity
  8
M-EQPM
 62
     7
420
 13434879
440
 33554529
370
    50
100
AcDbPolyFaceMesh
 66
     1
 10
0.0
 20
0.0
 30
0.0
 70
    64
 71
     4
 72
     1
1001
REVIT
1002
{
1070
     1
1000
11514
1002
}
1002
{
1070
     4
1000
252
1002
}
1002
{
1070
     2
1000
-2001140
1002
}
1002
{
1070
     3
1000
11945
1002
}
  0
VERTEX
  5
26F
330
26E
100
AcDbEntity
  8
M-EQPM
 62
     7
420
 13434879
440
 33554529
370
    50
100
AcDbVertex
100
AcDbPolyFaceMeshVertex
 10
585.0000117301942
 20
-570.9999941825866
 30
-1200.000009155273
 70
   192
  0
VERTEX
  5
270
330
26E
100
AcDbEntity
  8
M-EQPM
 62
     7
420
 13434879
440
 33554529
370
    50
100
AcDbVertex
100
AcDbPolyFaceMeshVertex
 10
-585.0000117301942
 20
-570.9999941825866
 30
-1200.000009155273
 70
   192
  0
VERTEX
  5
271
330
26E
100
AcDbEntity
  8
M-EQPM
 62
     7
420
 13434879
440
 33554529
370
    50
100
AcDbVertex
100
AcDbPolyFaceMeshVertex
 10
-585.0000117301942
 20
0.0
 30
-1200.000009155273
 70
   192
  0
VERTEX
  5
272
330
26E
100
AcDbEntity
  8
M-EQPM
 62
     7
420
 13434879
440
 33554529
370
    50
100
AcDbVertex
100
AcDbPolyFaceMeshVertex
 10
585.0000117301942
 20
0.0
 30
-1200.000009155273
 70
   192
  0
VERTEX
  5
273
330
26E
100
AcDbEntity
  8
M-EQPM
 62
     7
420
 13434879
440
 33554529
370
    50
100
AcDbFaceRecord
 10
0.0
 20
0.0
 30
0.0
 70
   128
 71
     1
 72
     2
 73
     3
 74
     4
  0
SEQEND
  5
274
330
26E
100
AcDbEntity
  8
M-EQPM
 62
     7
420
 13434879
440
 33554529
370
    50
  0
POLYLINE
  5
275
330
70
100
AcDbEntity
  8
M-EQPM
 62
     7
420
 13434879
440
 33554529
370
    50
100
AcDbPolyFaceMesh
 66
     1
 10
0.0
 20
0.0
 30
0.0
 70
    64
 71
     4
 72
     1
1001
REVIT
1002
{
1070
     1
1000
11514
1002
}
1002
{
1070
     4
1000
252
1002
}
1002
{
1070
     2
1000
-2001140
1002
}
1002
{
1070
     3
1000
11945
1002
}
  0
VERTEX
  5
276
330
275
100
AcDbEntity
  8
M-EQPM
 62
     7
420
 13434879
440
 33554529
370
    50
100
AcDbVertex
100
AcDbPolyFaceMeshVertex
 10
585.0000117301942
 20
0.0
 30
-1200.000009155273
 70
   192
  0
VERTEX
  5
277
330
275
100
AcDbEntity
  8
M-EQPM
 62
     7
420
 13434879
440
 33554529
370
    50
100
AcDbVertex
100
AcDbPolyFaceMeshVertex
 10
585.0000117301942
 20
0.0
 30
-0.0000000000044668
 70
   192
  0
VERTEX
  5
278
330
275
100
AcDbEntity
  8
M-EQPM
 62
     7
420
 13434879
440
 33554529
370
    50
100
AcDbVertex
100
AcDbPolyFaceMeshVertex
 10
585.0000117301942
 20
-570.9999941825866
 30
-0.0000000000044668
 70
   192
  0
VERTEX
  5
279
330
275
100
AcDbEntity
  8
M-EQPM
 62
     7
420
 13434879
440
 33554529
370
    50
100
AcDbVertex
100
AcDbPolyFaceMeshVertex
 10
585.0000117301942
 20
-570.9999941825866
 30
-1200.000009155273
 70
   192
  0
VERTEX
  5
27A
330
275
100
AcDbEntity
  8
M-EQPM
 62
     7
420
 13434879
440
 33554529
370
    50
100
AcDbFaceRecord
 10
0.0
 20
0.0
 30
0.0
 70
   128
 71
     1
 72
     2
 73
     3
 74
     4
  0
SEQEND
  5
27B
330
275
100
AcDbEntity
  8
M-EQPM
 62
     7
420
 13434879
440
 33554529
370
    50
  0
POLYLINE
  5
27C
330
70
100
AcDbEntity
  8
M-EQPM
 62
     7
420
 13434879
440
 33554529
370
    50
100
AcDbPolyFaceMesh
 66
     1
 10
0.0
 20
0.0
 30
0.0
 70
    64
 71
     4
 72
     1
1001
REVIT
1002
{
1070
     1
1000
11514
1002
}
1002
{
1070
     4
1000
252
1002
}
1002
{
1070
     2
1000
-2001140
1002
}
1002
{
1070
     3
1000
11945
1002
}
  0
VERTEX
  5
27D
330
27C
100
AcDbEntity
  8
M-EQPM
 62
     7
420
 13434879
440
 33554529
370
    50
100
AcDbVertex
100
AcDbPolyFaceMeshVertex
 10
585.0000117301942
 20
-570.9999941825866
 30
-1200.000009155273
 70
   192
  0
VERTEX
  5
27E
330
27C
100
AcDbEntity
  8
M-EQPM
 62
     7
420
 13434879
440
 33554529
370
    50
100
AcDbVertex
100
AcDbPolyFaceMeshVertex
 10
585.0000117301942
 20
-570.9999941825866
 30
-0.0000000000044668
 70
   192
  0
VERTEX
  5
27F
330
27C
100
AcDbEntity
  8
M-EQPM
 62
     7
420
 13434879
440
 33554529
370
    50
100
AcDbVertex
100
AcDbPolyFaceMeshVertex
 10
-585.0000117301942
 20
-570.9999941825866
 30
-0.0000000000006768
 70
   192
  0
VERTEX
  5
280
330
27C
100
AcDbEntity
  8
M-EQPM
 62
     7
420
 13434879
440
 33554529
370
    50
100
AcDbVertex
100
AcDbPolyFaceMeshVertex
 10
-585.0000117301942
 20
-570.9999941825866
 30
-1200.000009155273
 70
   192
  0
VERTEX
  5
281
330
27C
100
AcDbEntity
  8
M-EQPM
 62
     7
420
 13434879
440
 33554529
370
    50
100
AcDbFaceRecord
 10
0.0
 20
0.0
 30
0.0
 70
   128
 71
     1
 72
     2
 73
     3
 74
     4
  0
SEQEND
  5
282
330
27C
100
AcDbEntity
  8
M-EQPM
 62
     7
420
 13434879
440
 33554529
370
    50
  0
POLYLINE
  5
283
330
70
100
AcDbEntity
  8
M-EQPM
 62
     7
420
 13434879
440
 33554529
370
    50
100
AcDbPolyFaceMesh
 66
     1
 10
0.0
 20
0.0
 30
0.0
 70
    64
 71
     4
 72
     1
1001
REVIT
1002
{
1070
     1
1000
11514
1002
}
1002
{
1070
     4
1000
252
1002
}
1002
{
1070
     2
1000
-2001140
1002
}
1002
{
1070
     3
1000
11945
1002
}
  0
VERTEX
  5
284
330
283
100
AcDbEntity
  8
M-EQPM
 62
     7
420
 13434879
440
 33554529
370
    50
100
AcDbVertex
100
AcDbPolyFaceMeshVertex
 10
-585.0000117301942
 20
-570.9999941825866
 30
-1200.000009155273
 70
   192
  0
VERTEX
  5
285
330
283
100
AcDbEntity
  8
M-EQPM
 62
     7
420
 13434879
440
 33554529
370
    50
100
AcDbVertex
100
AcDbPolyFaceMeshVertex
 10
-585.0000117301942
 20
-570.9999941825866
 30
-0.0000000000006768
 70
   192
  0
VERTEX
  5
286
330
283
100
AcDbEntity
  8
M-EQPM
 62
     7
420
 13434879
440
 33554529
370
    50
100
AcDbVertex
100
AcDbPolyFaceMeshVertex
 10
-585.0000117301942
 20
0.0
 30
-0.0000000000006768
 70
   192
  0
VERTEX
  5
287
330
283
100
AcDbEntity
  8
M-EQPM
 62
     7
420
 13434879
440
 33554529
370
    50
100
AcDbVertex
100
AcDbPolyFaceMeshVertex
 10
-585.0000117301942
 20
0.0
 30
-1200.000009155273
 70
   192
  0
VERTEX
  5
288
330
283
100
AcDbEntity
  8
M-EQPM
 62
     7
420
 13434879
440
 33554529
370
    50
100
AcDbFaceRecord
 10
0.0
 20
0.0
 30
0.0
 70
   128
 71
     1
 72
     2
 73
     3
 74
     4
  0
SEQEND
  5
289
330
283
100
AcDbEntity
  8
M-EQPM
 62
     7
420
 13434879
440
 33554529
370
    50
  0
POLYLINE
  5
28A
330
70
100
AcDbEntity
  8
M-EQPM
 62
     7
420
 13434879
440
 33554529
370
    50
100
AcDbPolyFaceMesh
 66
     1
 10
0.0
 20
0.0
 30
0.0
 70
    64
 71
     4
 72
     1
1001
REVIT
1002
{
1070
     1
1000
11514
1002
}
1002
{
1070
     4
1000
252
1002
}
1002
{
1070
     2
1000
-2001140
1002
}
1002
{
1070
     3
1000
11945
1002
}
  0
VERTEX
  5
28B
330
28A
100
AcDbEntity
  8
M-EQPM
 62
     7
420
 13434879
440
 33554529
370
    50
100
AcDbVertex
100
AcDbPolyFaceMeshVertex
 10
-585.0000117301942
 20
0.0
 30
-1200.000009155273
 70
   192
  0
VERTEX
  5
28C
330
28A
100
AcDbEntity
  8
M-EQPM
 62
     7
420
 13434879
440
 33554529
370
    50
100
AcDbVertex
100
AcDbPolyFaceMeshVertex
 10
-585.0000117301942
 20
0.0
 30
-0.0000000000006768
 70
   192
  0
VERTEX
  5
28D
330
28A
100
AcDbEntity
  8
M-EQPM
 62
     7
420
 13434879
440
 33554529
370
    50
100
AcDbVertex
100
AcDbPolyFaceMeshVertex
 10
585.0000117301942
 20
0.0
 30
-0.0000000000044668
 70
   192
  0
VERTEX
  5
28E
330
28A
100
AcDbEntity
  8
M-EQPM
 62
     7
420
 13434879
440
 33554529
370
    50
100
AcDbVertex
100
AcDbPolyFaceMeshVertex
 10
585.0000117301942
 20
0.0
 30
-1200.000009155273
 70
   192
  0
VERTEX
  5
28F
330
28A
100
AcDbEntity
  8
M-EQPM
 62
     7
420
 13434879
440
 33554529
370
    50
100
AcDbFaceRecord
 10
0.0
 20
0.0
 30
0.0
 70
   128
 71
     1
 72
     2
 73
     3
 74
     4
  0
SEQEND
  5
290
330
28A
100
AcDbEntity
  8
M-EQPM
 62
     7
420
 13434879
440
 33554529
370
    50
  0
POLYLINE
  5
291
330
70
100
AcDbEntity
  8
M-EQPM
 62
   251
420
  4674641
100
AcDbPolyFaceMesh
 66
     1
 10
0.0
 20
0.0
 30
0.0
 70
    64
 71
    24
 72
    12
1001
REVIT
1002
{
1070
     1
1000
19451
1002
}
1002
{
1070
     4
1000
3251
1002
}
1002
{
1070
     2
1000
-2001140
1002
}
1002
{
1070
     3
1000
11945
1002
}
  0
VERTEX
  5
292
330
291
100
AcDbEntity
  8
M-EQPM
 62
   251
420
  4674641
100
AcDbVertex
100
AcDbPolyFaceMeshVertex
 10
-469.5049538612365
 20
-429.767880821228
 30
264.9999947547913
 70
   192
  0
VERTEX
  5
293
330
291
100
AcDbEntity
  8
M-EQPM
 62
   251
420
  4674641
100
AcDbVertex
100
AcDbPolyFaceMeshVertex
 10
-468.9750806808472
 20
-433.7925261497497
 30
264.9999947547913
 70
   192
  0
VERTEX
  5
294
330
291
100
AcDbEntity
  8
M-EQPM
 62
   251
420
  4674641
100
AcDbVertex
100
AcDbPolyFaceMeshVertex
 10
-467.4216507911682
 20
-437.5428786277771
 30
264.9999947547913
 70
   192
  0
VERTEX
  5
295
330
291
100
AcDbEntity
  8
M-EQPM
 62
   251
420
  4674641
100
AcDbVertex
100
AcDbPolyFaceMeshVertex
 10
-464.9504716873169
 20
-440.7633942604065
 30
264.9999947547913
 70
   192
  0
VERTEX
  5
296
330
291
100
AcDbEntity
  8
M-EQPM
 62
   251
420
  4674641
100
AcDbVertex
100
AcDbPolyFaceMeshVertex
 10
-461.7299560546875
 20
-443.2345733642578
 30
264.9999947547913
 70
   192
  0
VERTEX
  5
297
330
291
100
AcDbEntity
  8
M-EQPM
 62
   251
420
  4674641
100
AcDbVertex
100
AcDbPolyFaceMeshVertex
 10
-457.9796035766602
 20
-444.7880395889282
 30
264.9999947547913
 70
   192
  0
VERTEX
  5
298
330
291
100
AcDbEntity
  8
M-EQPM
 62
   251
420
  4674641
100
AcDbVertex
100
AcDbPolyFaceMeshVertex
 10
-453.9549582481384
 20
-445.3178764343261
 30
264.9999947547913
 70
   192
  0
VERTEX
  5
299
330
291
100
AcDbEntity
  8
M-EQPM
 62
   251
420
  4674641
100
AcDbVertex
100
AcDbPolyFaceMeshVertex
 10
-449.9303129196166
 20
-444.7880395889282
 30
264.9999947547913
 70
   192
  0
VERTEX
  5
29A
330
291
100
AcDbEntity
  8
M-EQPM
 62
   251
420
  4674641
100
AcDbVertex
100
AcDbPolyFaceMeshVertex
 10
-446.1799604415893
 20
-443.2345733642578
 30
264.9999947547913
 70
   192
  0
VERTEX
  5
29B
330
291
100
AcDbEntity
  8
M-EQPM
 62
   251
420
  4674641
100
AcDbVertex
100
AcDbPolyFaceMeshVertex
 10
-442.9594448089599
 20
-440.7633942604065
 30
264.9999947547913
 70
   192
  0
VERTEX
  5
29C
330
291
100
AcDbEntity
  8
M-EQPM
 62
   251
420
  4674641
100
AcDbVertex
100
AcDbPolyFaceMeshVertex
 10
-440.4882657051086
 20
-437.5428786277771
 30
264.9999947547913
 70
   192
  0
VERTEX
  5
29D
330
291
100
AcDbEntity
  8
M-EQPM
 62
   251
420
  4674641
100
AcDbVertex
100
AcDbPolyFaceMeshVertex
 10
-438.9347994804382
 20
-433.7925261497497
 30
264.9999947547913
 70
   192
  0
VERTEX
  5
29E
330
291
100
AcDbEntity
  8
M-EQPM
 62
   251
420
  4674641
100
AcDbVertex
100
AcDbPolyFaceMeshVertex
 10
-438.4049626350402
 20
-429.767880821228
 30
264.9999947547913
 70
   192
  0
VERTEX
  5
29F
330
291
100
AcDbEntity
  8
M-EQPM
 62
   251
420
  4674641
100
AcDbVertex
100
AcDbPolyFaceMeshVertex
 10
-438.9347994804382
 20
-425.7432354927063
 30
264.9999947547913
 70
   192
  0
VERTEX
  5
2A0
330
291
100
AcDbEntity
  8
M-EQPM
 62
   251
420
  4674641
100
AcDbVertex
100
AcDbPolyFaceMeshVertex
 10
-440.4882657051086
 20
-421.9928830146789
 30
264.9999947547913
 70
   192
  0
VERTEX
  5
2A1
330
291
100
AcDbEntity
  8
M-EQPM
 62
   251
420
  4674641
100
AcDbVertex
100
AcDbPolyFaceMeshVertex
 10
-442.9594448089599
 20
-418.7723673820496
 30
264.9999947547913
 70
   192
  0
VERTEX
  5
2A2
330
291
100
AcDbEntity
  8
M-EQPM
 62
   251
420
  4674641
100
AcDbVertex
100
AcDbPolyFaceMeshVertex
 10
-446.1799604415893
 20
-416.3011882781982
 30
264.9999947547913
 70
   192
  0
VERTEX
  5
2A3
330
291
100
AcDbEntity
  8
M-EQPM
 62
   251
420
  4674641
100
AcDbVertex
100
AcDbPolyFaceMeshVertex
 10
-449.9303129196166
 20
-414.7477220535278
 30
264.9999947547913
 70
   192
  0
VERTEX
  5
2A4
330
291
100
AcDbEntity
  8
M-EQPM
 62
   251
420
  4674641
100
AcDbVertex
100
AcDbPolyFaceMeshVertex
 10
-453.9549582481384
 20
-414.2178852081299
 30
264.9999947547913
 70
   192
  0
VERTEX
  5
2A5
330
291
100
AcDbEntity
  8
M-EQPM
 62
   251
420
  4674641
100
AcDbVertex
100
AcDbPolyFaceMeshVertex
 10
-457.9796035766602
 20
-414.7477220535278
 30
264.9999947547913
 70
   192
  0
VERTEX
  5
2A6
330
291
100
AcDbEntity
  8
M-EQPM
 62
   251
420
  4674641
100
AcDbVertex
100
AcDbPolyFaceMeshVertex
 10
-461.7299560546875
 20
-416.3011882781982
 30
264.9999947547913
 70
   192
  0
VERTEX
  5
2A7
330
291
100
AcDbEntity
  8
M-EQPM
 62
   251
420
  4674641
100
AcDbVertex
100
AcDbPolyFaceMeshVertex
 10
-464.9504716873169
 20
-418.7723673820496
 30
264.9999947547913
 70
   192
  0
VERTEX
  5
2A8
330
291
100
AcDbEntity
  8
M-EQPM
 62
   251
420
  4674641
100
AcDbVertex
100
AcDbPolyFaceMeshVertex
 10
-467.4216507911682
 20
-421.9928830146789
 30
264.9999947547913
 70
   192
  0
VERTEX
  5
2A9
330
291
100
AcDbEntity
  8
M-EQPM
 62
   251
420
  4674641
100
AcDbVertex
100
AcDbPolyFaceMeshVertex
 10
-468.9750806808472
 20
-425.7432354927063
 30
264.9999947547913
 70
   192
  0
VERTEX
  5
2AA
330
291
100
AcDbEntity
  8
M-EQPM
 62
   251
420
  4674641
100
AcDbFaceRecord
 10
0.0
 20
0.0
 30
0.0
 70
   128
 71
   -11
 72
     8
 73
     9
 74
    10
  0
VERTEX
  5
2AB
330
291
100
AcDbEntity
  8
M-EQPM
 62
   251
420
  4674641
100
AcDbFaceRecord
 10
0.0
 20
0.0
 30
0.0
 70
   128
 71
    11
 72
    12
 73
   -13
 74
    -8
  0
VERTEX
  5
2AC
330
291
100
AcDbEntity
  8
M-EQPM
 62
   251
420
  4674641
100
AcDbFaceRecord
 10
0.0
 20
0.0
 30
0.0
 70
   128
 71
    -8
 72
   -20
 73
     2
 74
    -3
  0
VERTEX
  5
2AD
330
291
100
AcDbEntity
  8
M-EQPM
 62
   251
420
  4674641
100
AcDbFaceRecord
 10
0.0
 20
0.0
 30
0.0
 70
   128
 71
     5
 72
     6
 73
     7
 74
    -8
  0
VERTEX
  5
2AE
330
291
100
AcDbEntity
  8
M-EQPM
 62
   251
420
  4674641
100
AcDbFaceRecord
 10
0.0
 20
0.0
 30
0.0
 70
   128
 71
     3
 72
     4
 73
    -5
 74
    -8
  0
VERTEX
  5
2AF
330
291
100
AcDbEntity
  8
M-EQPM
 62
   251
420
  4674641
100
AcDbFaceRecord
 10
0.0
 20
0.0
 30
0.0
 70
   128
 71
    -8
 72
   -13
 73
   -16
 74
   -20
  0
VERTEX
  5
2B0
330
291
100
AcDbEntity
  8
M-EQPM
 62
   251
420
  4674641
100
AcDbFaceRecord
 10
0.0
 20
0.0
 30
0.0
 70
   128
 71
    14
 72
    15
 73
   -16
 74
    13
  0
VERTEX
  5
2B1
330
291
100
AcDbEntity
  8
M-EQPM
 62
   251
420
  4674641
100
AcDbFaceRecord
 10
0.0
 20
0.0
 30
0.0
 70
   128
 71
   -18
 72
   -20
 73
    16
 74
    17
  0
VERTEX
  5
2B2
330
291
100
AcDbEntity
  8
M-EQPM
 62
   251
420
  4674641
100
AcDbFaceRecord
 10
0.0
 20
0.0
 30
0.0
 70
   128
 71
    19
 72
   -20
 73
    18
  0
VERTEX
  5
2B3
330
291
100
AcDbEntity
  8
M-EQPM
 62
   251
420
  4674641
100
AcDbFaceRecord
 10
0.0
 20
0.0
 30
0.0
 70
   128
 71
    23
 72
    24
 73
     1
 74
    -2
  0
VERTEX
  5
2B4
330
291
100
AcDbEntity
  8
M-EQPM
 62
   251
420
  4674641
100
AcDbFaceRecord
 10
0.0
 20
0.0
 30
0.0
 70
   128
 71
    20
 72
    21
 73
    22
 74
   -23
  0
VERTEX
  5
2B5
330
291
100
AcDbEntity
  8
M-EQPM
 62
   251
420
  4674641
100
AcDbFaceRecord
 10
0.0
 20
0.0
 30
0.0
 70
   128
 71
   -20
 72
   -23
 73
    -2
  0
SEQEND
  5
2B6
330
291
100
AcDbEntity
  8
M-EQPM
 62
   251
420
  4674641
  0
POLYLINE
  5
2B7
330
70
100
AcDbEntity
  8
M-EQPM
 62
   251
420
  4674641
100
AcDbPolyFaceMesh
 66
     1
 10
0.0
 20
0.0
 30
0.0
 70
    64
 71
    24
 72
    13
1001
REVIT
1002
{
1070
     1
1000
19451
1002
}
1002
{
1070
     4
1000
3251
1002
}
1002
{
1070
     2
1000
-2001140
1002
}
1002
{
1070
     3
1000
11945
1002
}
  0
VERTEX
  5
2B8
330
2B7
100
AcDbEntity
  8
M-EQPM
 62
   251
420
  4674641
100
AcDbVertex
100
AcDbPolyFaceMeshVertex
 10
-469.5049538612365
 20
-429.767880821228
 30
261.9999961853027
 70
   192
  0
VERTEX
  5
2B9
330
2B7
100
AcDbEntity
  8
M-EQPM
 62
   251
420
  4674641
100
AcDbVertex
100
AcDbPolyFaceMeshVertex
 10
-468.9750806808472
 20
-425.7432354927063
 30
261.9999961853027
 70
   192
  0
VERTEX
  5
2BA
330
2B7
100
AcDbEntity
  8
M-EQPM
 62
   251
420
  4674641
100
AcDbVertex
100
AcDbPolyFaceMeshVertex
 10
-467.4216507911682
 20
-421.9928830146789
 30
261.9999961853027
 70
   192
  0
VERTEX
  5
2BB
330
2B7
100
AcDbEntity
  8
M-EQPM
 62
   251
420
  4674641
100
AcDbVertex
100
AcDbPolyFaceMeshVertex
 10
-464.9504716873169
 20
-418.7723673820496
 30
261.9999961853027
 70
   192
  0
VERTEX
  5
2BC
330
2B7
100
AcDbEntity
  8
M-EQPM
 62
   251
420
  4674641
100
AcDbVertex
100
AcDbPolyFaceMeshVertex
 10
-461.7299560546875
 20
-416.3011882781982
 30
261.9999961853027
 70
   192
  0
VERTEX
  5
2BD
330
2B7
100
AcDbEntity
  8
M-EQPM
 62
   251
420
  4674641
100
AcDbVertex
100
AcDbPolyFaceMeshVertex
 10
-457.9796035766602
 20
-414.7477220535278
 30
261.9999961853027
 70
   192
  0
VERTEX
  5
2BE
330
2B7
100
AcDbEntity
  8
M-EQPM
 62
   251
420
  4674641
100
AcDbVertex
100
AcDbPolyFaceMeshVertex
 10
-453.9549582481384
 20
-414.2178852081299
 30
261.9999961853027
 70
   192
  0
VERTEX
  5
2BF
330
2B7
100
AcDbEntity
  8
M-EQPM
 62
   251
420
  4674641
100
AcDbVertex
100
AcDbPolyFaceMeshVertex
 10
-449.9303129196166
 20
-414.7477220535278
 30
261.9999961853027
 70
   192
  0
VERTEX
  5
2C0
330
2B7
100
AcDbEntity
  8
M-EQPM
 62
   251
420
  4674641
100
AcDbVertex
100
AcDbPolyFaceMeshVertex
 10
-446.1799604415893
 20
-416.3011882781982
 30
261.9999961853027
 70
   192
  0
VERTEX
  5
2C1
330
2B7
100
AcDbEntity
  8
M-EQPM
 62
   251
420
  4674641
100
AcDbVertex
100
AcDbPolyFaceMeshVertex
 10
-442.9594448089599
 20
-418.7723673820496
 30
261.9999961853027
 70
   192
  0
VERTEX
  5
2C2
330
2B7
100
AcDbEntity
  8
M-EQPM
 62
   251
420
  4674641
100
AcDbVertex
100
AcDbPolyFaceMeshVertex
 10
-440.4882657051086
 20
-421.9928830146789
 30
261.9999961853027
 70
   192
  0
VERTEX
  5
2C3
330
2B7
100
AcDbEntity
  8
M-EQPM
 62
   251
420
  4674641
100
AcDbVertex
100
AcDbPolyFaceMeshVertex
 10
-438.9347994804382
 20
-425.7432354927063
 30
261.9999961853027
 70
   192
  0
VERTEX
  5
2C4
330
2B7
100
AcDbEntity
  8
M-EQPM
 62
   251
420
  4674641
100
AcDbVertex
100
AcDbPolyFaceMeshVertex
 10
-438.4049626350402
 20
-429.767880821228
 30
261.9999961853027
 70
   192
  0
VERTEX
  5
2C5
330
2B7
100
AcDbEntity
  8
M-EQPM
 62
   251
420
  4674641
100
AcDbVertex
100
AcDbPolyFaceMeshVertex
 10
-438.9347994804382
 20
-433.7925261497497
 30
261.9999961853027
 70
   192
  0
VERTEX
  5
2C6
330
2B7
100
AcDbEntity
  8
M-EQPM
 62
   251
420
  4674641
100
AcDbVertex
100
AcDbPolyFaceMeshVertex
 10
-440.4882657051086
 20
-437.5428786277771
 30
261.9999961853027
 70
   192
  0
VERTEX
  5
2C7
330
2B7
100
AcDbEntity
  8
M-EQPM
 62
   251
420
  4674641
100
AcDbVertex
100
AcDbPolyFaceMeshVertex
 10
-442.9594448089599
 20
-440.7633942604065
 30
261.9999961853027
 70
   192
  0
VERTEX
  5
2C8
330
2B7
100
AcDbEntity
  8
M-EQPM
 62
   251
420
  4674641
100
AcDbVertex
100
AcDbPolyFaceMeshVertex
 10
-446.1799604415893
 20
-443.2345733642578
 30
261.9999961853027
 70
   192
  0
VERTEX
  5
2C9
330
2B7
100
AcDbEntity
  8
M-EQPM
 62
   251
420
  4674641
100
AcDbVertex
100
AcDbPolyFaceMeshVertex
 10
-449.9303129196166
 20
-444.7880395889282
 30
261.9999961853027
 70
   192
  0
VERTEX
  5
2CA
330
2B7
100
AcDbEntity
  8
M-EQPM
 62
   251
420
  4674641
100
AcDbVertex
100
AcDbPolyFaceMeshVertex
 10
-453.9549582481384
 20
-445.3178764343261
 30
261.9999961853027
 70
   192
  0
VERTEX
  5
2CB
330
2B7
100
AcDbEntity
  8
M-EQPM
 62
   251
420
  4674641
100
AcDbVertex
100
AcDbPolyFaceMeshVertex
 10
-457.9796035766602
 20
-444.7880395889282
 30
261.9999961853027
 70
   192
  0
VERTEX
  5
2CC
330
2B7
100
AcDbEntity
  8
M-EQPM
 62
   251
420
  4674641
100
AcDbVertex
100
AcDbPolyFaceMeshVertex
 10
-461.7299560546875
 20
-443.2345733642578
 30
261.9999961853027
 70
   192
  0
VERTEX
  5
2CD
330
2B7
100
AcDbEntity
  8
M-EQPM
 62
   251
420
  4674641
100
AcDbVertex
100
AcDbPolyFaceMeshVertex
 10
-464.9504716873169
 20
-440.7633942604065
 30
261.9999961853027
 70
   192
  0
VERTEX
  5
2CE
330
2B7
100
AcDbEntity
  8
M-EQPM
 62
   251
420
  4674641
100
AcDbVertex
100
AcDbPolyFaceMeshVertex
 10
-467.4216507911682
 20
-437.5428786277771
 30
261.9999961853027
 70
   192
  0
VERTEX
  5
2CF
330
2B7
100
AcDbEntity
  8
M-EQPM
 62
   251
420
  4674641
100
AcDbVertex
100
AcDbPolyFaceMeshVertex
 10
-468.9750806808472
 20
-433.7925261497497
 30
261.9999961853027
 70
   192
  0
VERTEX
  5
2D0
330
2B7
100
AcDbEntity
  8
M-EQPM
 62
   251
420
  4674641
100
AcDbFaceRecord
 10
0.0
 20
0.0
 30
0.0
 70
   128
 71
     6
 72
     7
 73
    -8
 74
   -10
  0
VERTEX
  5
2D1
330
2B7
100
AcDbEntity
  8
M-EQPM
 62
   251
420
  4674641
100
AcDbFaceRecord
 10
0.0
 20
0.0
 30
0.0
 70
   128
 71
   -10
 72
     8
 73
     9
  0
VERTEX
  5
2D2
330
2B7
100
AcDbEntity
  8
M-EQPM
 62
   251
420
  4674641
100
AcDbFaceRecord
 10
0.0
 20
0.0
 30
0.0
 70
   128
 71
    10
 72
    11
 73
   -12
  0
VERTEX
  5
2D3
330
2B7
100
AcDbEntity
  8
M-EQPM
 62
   251
420
  4674641
100
AcDbFaceRecord
 10
0.0
 20
0.0
 30
0.0
 70
   128
 71
   -18
 72
    -6
 73
   -10
 74
   -12
  0
VERTEX
  5
2D4
330
2B7
100
AcDbEntity
  8
M-EQPM
 62
   251
420
  4674641
100
AcDbFaceRecord
 10
0.0
 20
0.0
 30
0.0
 70
   128
 71
     4
 72
     5
 73
    -6
 74
     3
  0
VERTEX
  5
2D5
330
2B7
100
AcDbEntity
  8
M-EQPM
 62
   251
420
  4674641
100
AcDbFaceRecord
 10
0.0
 20
0.0
 30
0.0
 70
   128
 71
     1
 72
     2
 73
    -3
 74
    24
  0
VERTEX
  5
2D6
330
2B7
100
AcDbEntity
  8
M-EQPM
 62
   251
420
  4674641
100
AcDbFaceRecord
 10
0.0
 20
0.0
 30
0.0
 70
   128
 71
   -24
 72
    -3
 73
    -6
 74
   -18
  0
VERTEX
  5
2D7
330
2B7
100
AcDbEntity
  8
M-EQPM
 62
   251
420
  4674641
100
AcDbFaceRecord
 10
0.0
 20
0.0
 30
0.0
 70
   128
 71
    13
 72
    14
 73
   -15
 74
   -18
  0
VERTEX
  5
2D8
330
2B7
100
AcDbEntity
  8
M-EQPM
 62
   251
420
  4674641
100
AcDbFaceRecord
 10
0.0
 20
0.0
 30
0.0
 70
   128
 71
    17
 72
   -18
 73
    15
 74
    16
  0
VERTEX
  5
2D9
330
2B7
100
AcDbEntity
  8
M-EQPM
 62
   251
420
  4674641
100
AcDbFaceRecord
 10
0.0
 20
0.0
 30
0.0
 70
   128
 71
    21
 72
    22
 73
   -23
 74
   -18
  0
VERTEX
  5
2DA
330
2B7
100
AcDbEntity
  8
M-EQPM
 62
   251
420
  4674641
100
AcDbFaceRecord
 10
0.0
 20
0.0
 30
0.0
 70
   128
 71
    23
 72
   -24
 73
   -18
  0
VERTEX
  5
2DB
330
2B7
100
AcDbEntity
  8
M-EQPM
 62
   251
420
  4674641
100
AcDbFaceRecord
 10
0.0
 20
0.0
 30
0.0
 70
   128
 71
    19
 72
    20
 73
   -21
 74
    18
  0
VERTEX
  5
2DC
330
2B7
100
AcDbEntity
  8
M-EQPM
 62
   251
420
  4674641
100
AcDbFaceRecord
 10
0.0
 20
0.0
 30
0.0
 70
   128
 71
   -18
 72
    12
 73
   -13
  0
SEQEND
  5
2DD
330
2B7
100
AcDbEntity
  8
M-EQPM
 62
   251
420
  4674641
  0
POLYLINE
  5
2DE
330
70
100
AcDbEntity
  8
M-EQPM
 62
   251
420
  4674641
100
AcDbPolyFaceMesh
 66
     1
 10
0.0
 20
0.0
 30
0.0
 70
    64
 71
    26
 72
    12
1001
REVIT
1002
{
1070
     1
1000
19451
1002
}
1002
{
1070
     4
1000
3251
1002
}
1002
{
1070
     2
1000
-2001140
1002
}
1002
{
1070
     3
1000
11945
1002
}
  0
VERTEX
  5
2DF
330
2DE
100
AcDbEntity
  8
M-EQPM
 62
   251
420
  4674641
100
AcDbVertex
100
AcDbPolyFaceMeshVertex
 10
-469.5049538612365
 20
-429.767880821228
 30
264.9999947547913
 70
   192
  0
VERTEX
  5
2E0
330
2DE
100
AcDbEntity
  8
M-EQPM
 62
   251
420
  4674641
100
AcDbVertex
100
AcDbPolyFaceMeshVertex
 10
-468.9750806808472
 20
-425.7432354927063
 30
264.9999947547913
 70
   192
  0
VERTEX
  5
2E1
330
2DE
100
AcDbEntity
  8
M-EQPM
 62
   251
420
  4674641
100
AcDbVertex
100
AcDbPolyFaceMeshVertex
 10
-467.4216507911682
 20
-421.9928830146789
 30
264.9999947547913
 70
   192
  0
VERTEX
  5
2E2
330
2DE
100
AcDbEntity
  8
M-EQPM
 62
   251
420
  4674641
100
AcDbVertex
100
AcDbPolyFaceMeshVertex
 10
-464.9504716873169
 20
-418.7723673820496
 30
264.9999947547913
 70
   192
  0
VERTEX
  5
2E3
330
2DE
100
AcDbEntity
  8
M-EQPM
 62
   251
420
  4674641
100
AcDbVertex
100
AcDbPolyFaceMeshVertex
 10
-461.7299560546875
 20
-416.3011882781982
 30
264.9999947547913
 70
   192
  0
VERTEX
  5
2E4
330
2DE
100
AcDbEntity
  8
M-EQPM
 62
   251
420
  4674641
100
AcDbVertex
100
AcDbPolyFaceMeshVertex
 10
-457.9796035766602
 20
-414.7477220535278
 30
264.9999947547913
 70
   192
  0
VERTEX
  5
2E5
330
2DE
100
AcDbEntity
  8
M-EQPM
 62
   251
420
  4674641
100
AcDbVertex
100
AcDbPolyFaceMeshVertex
 10
-453.9549582481384
 20
-414.2178852081299
 30
264.9999947547913
 70
   192
  0
VERTEX
  5
2E6
330
2DE
100
AcDbEntity
  8
M-EQPM
 62
   251
420
  4674641
100
AcDbVertex
100
AcDbPolyFaceMeshVertex
 10
-449.9303129196166
 20
-414.7477220535278
 30
264.9999947547913
 70
   192
  0
VERTEX
  5
2E7
330
2DE
100
AcDbEntity
  8
M-EQPM
 62
   251
420
  4674641
100
AcDbVertex
100
AcDbPolyFaceMeshVertex
 10
-446.1799604415893
 20
-416.3011882781982
 30
264.9999947547913
 70
   192
  0
VERTEX
  5
2E8
330
2DE
100
AcDbEntity
  8
M-EQPM
 62
   251
420
  4674641
100
AcDbVertex
100
AcDbPolyFaceMeshVertex
 10
-442.9594448089599
 20
-418.7723673820496
 30
264.9999947547913
 70
   192
  0
VERTEX
  5
2E9
330
2DE
100
AcDbEntity
  8
M-EQPM
 62
   251
420
  4674641
100
AcDbVertex
100
AcDbPolyFaceMeshVertex
 10
-440.4882657051086
 20
-421.9928830146789
 30
264.9999947547913
 70
   192
  0
VERTEX
  5
2EA
330
2DE
100
AcDbEntity
  8
M-EQPM
 62
   251
420
  4674641
100
AcDbVertex
100
AcDbPolyFaceMeshVertex
 10
-438.9347994804382
 20
-425.7432354927063
 30
264.9999947547913
 70
   192
  0
VERTEX
  5
2EB
330
2DE
100
AcDbEntity
  8
M-EQPM
 62
   251
420
  4674641
100
AcDbVertex
100
AcDbPolyFaceMeshVertex
 10
-438.4049626350402
 20
-429.767880821228
 30
264.9999947547913
 70
   192
  0
VERTEX
  5
2EC
330
2DE
100
AcDbEntity
  8
M-EQPM
 62
   251
420
  4674641
100
AcDbVertex
100
AcDbPolyFaceMeshVertex
 10
-438.4049626350402
 20
-429.767880821228
 30
261.9999961853027
 70
   192
  0
VERTEX
  5
2ED
330
2DE
100
AcDbEntity
  8
M-EQPM
 62
   251
420
  4674641
100
AcDbVertex
100
AcDbPolyFaceMeshVertex
 10
-438.9347994804382
 20
-425.7432354927063
 30
261.9999961853027
 70
   192
  0
VERTEX
  5
2EE
330
2DE
100
AcDbEntity
  8
M-EQPM
 62
   251
420
  4674641
100
AcDbVertex
100
AcDbPolyFaceMeshVertex
 10
-440.4882657051086
 20
-421.9928830146789
 30
261.9999961853027
 70
   192
  0
VERTEX
  5
2EF
330
2DE
100
AcDbEntity
  8
M-EQPM
 62
   251
420
  4674641
100
AcDbVertex
100
AcDbPolyFaceMeshVertex
 10
-442.9594448089599
 20
-418.7723673820496
 30
261.9999961853027
 70
   192
  0
VERTEX
  5
2F0
330
2DE
100
AcDbEntity
  8
M-EQPM
 62
   251
420
  4674641
100
AcDbVertex
100
AcDbPolyFaceMeshVertex
 10
-446.1799604415893
 20
-416.3011882781982
 30
261.9999961853027
 70
   192
  0
VERTEX
  5
2F1
330
2DE
100
AcDbEntity
  8
M-EQPM
 62
   251
420
  4674641
100
AcDbVertex
100
AcDbPolyFaceMeshVertex
 10
-449.9303129196166
 20
-414.7477220535278
 30
261.9999961853027
 70
   192
  0
VERTEX
  5
2F2
330
2DE
100
AcDbEntity
  8
M-EQPM
 62
   251
420
  4674641
100
AcDbVertex
100
AcDbPolyFaceMeshVertex
 10
-453.9549582481384
 20
-414.2178852081299
 30
261.9999961853027
 70
   192
  0
VERTEX
  5
2F3
330
2DE
100
AcDbEntity
  8
M-EQPM
 62
   251
420
  4674641
100
AcDbVertex
100
AcDbPolyFaceMeshVertex
 10
-457.9796035766602
 20
-414.7477220535278
 30
261.9999961853027
 70
   192
  0
VERTEX
  5
2F4
330
2DE
100
AcDbEntity
  8
M-EQPM
 62
   251
420
  4674641
100
AcDbVertex
100
AcDbPolyFaceMeshVertex
 10
-461.7299560546875
 20
-416.3011882781982
 30
261.9999961853027
 70
   192
  0
VERTEX
  5
2F5
330
2DE
100
AcDbEntity
  8
M-EQPM
 62
   251
420
  4674641
100
AcDbVertex
100
AcDbPolyFaceMeshVertex
 10
-464.9504716873169
 20
-418.7723673820496
 30
261.9999961853027
 70
   192
  0
VERTEX
  5
2F6
330
2DE
100
AcDbEntity
  8
M-EQPM
 62
   251
420
  4674641
100
AcDbVertex
100
AcDbPolyFaceMeshVertex
 10
-467.4216507911682
 20
-421.9928830146789
 30
261.9999961853027
 70
   192
  0
VERTEX
  5
2F7
330
2DE
100
AcDbEntity
  8
M-EQPM
 62
   251
420
  4674641
100
AcDbVertex
100
AcDbPolyFaceMeshVertex
 10
-468.9750806808472
 20
-425.7432354927063
 30
261.9999961853027
 70
   192
  0
VERTEX
  5
2F8
330
2DE
100
AcDbEntity
  8
M-EQPM
 62
   251
420
  4674641
100
AcDbVertex
100
AcDbPolyFaceMeshVertex
 10
-469.5049538612365
 20
-429.767880821228
 30
261.9999961853027
 70
   192
  0
VERTEX
  5
2F9
330
2DE
100
AcDbEntity
  8
M-EQPM
 62
   251
420
  4674641
100
AcDbFaceRecord
 10
0.0
 20
0.0
 30
0.0
 70
   128
 71
    14
 72
   -15
 73
    12
 74
    13
  0
VERTEX
  5
2FA
330
2DE
100
AcDbEntity
  8
M-EQPM
 62
   251
420
  4674641
100
AcDbFaceRecord
 10
0.0
 20
0.0
 30
0.0
 70
   128
 71
    15
 72
   -16
 73
    11
 74
   -12
  0
VERTEX
  5
2FB
330
2DE
100
AcDbEntity
  8
M-EQPM
 62
   251
420
  4674641
100
AcDbFaceRecord
 10
0.0
 20
0.0
 30
0.0
 70
   128
 71
    17
 72
   -18
 73
     9
 74
   -10
  0
VERTEX
  5
2FC
330
2DE
100
AcDbEntity
  8
M-EQPM
 62
   251
420
  4674641
100
AcDbFaceRecord
 10
0.0
 20
0.0
 30
0.0
 70
   128
 71
    16
 72
   -17
 73
    10
 74
   -11
  0
VERTEX
  5
2FD
330
2DE
100
AcDbEntity
  8
M-EQPM
 62
   251
420
  4674641
100
AcDbFaceRecord
 10
0.0
 20
0.0
 30
0.0
 70
   128
 71
    18
 72
   -19
 73
     8
 74
    -9
  0
VERTEX
  5
2FE
330
2DE
100
AcDbEntity
  8
M-EQPM
 62
   251
420
  4674641
100
AcDbFaceRecord
 10
0.0
 20
0.0
 30
0.0
 70
   128
 71
     7
 72
    -8
 73
    19
 74
   -20
  0
VERTEX
  5
2FF
330
2DE
100
AcDbEntity
  8
M-EQPM
 62
   251
420
  4674641
100
AcDbFaceRecord
 10
0.0
 20
0.0
 30
0.0
 70
   128
 71
    20
 72
   -21
 73
     6
 74
    -7
  0
VERTEX
  5
300
330
2DE
100
AcDbEntity
  8
M-EQPM
 62
   251
420
  4674641
100
AcDbFaceRecord
 10
0.0
 20
0.0
 30
0.0
 70
   128
 71
    21
 72
   -22
 73
     5
 74
    -6
  0
VERTEX
  5
301
330
2DE
100
AcDbEntity
  8
M-EQPM
 62
   251
420
  4674641
100
AcDbFaceRecord
 10
0.0
 20
0.0
 30
0.0
 70
   128
 71
    23
 72
   -24
 73
     3
 74
    -4
  0
VERTEX
  5
302
330
2DE
100
AcDbEntity
  8
M-EQPM
 62
   251
420
  4674641
100
AcDbFaceRecord
 10
0.0
 20
0.0
 30
0.0
 70
   128
 71
    22
 72
   -23
 73
     4
 74
    -5
  0
VERTEX
  5
303
330
2DE
100
AcDbEntity
  8
M-EQPM
 62
   251
420
  4674641
100
AcDbFaceRecord
 10
0.0
 20
0.0
 30
0.0
 70
   128
 71
    24
 72
   -25
 73
     2
 74
    -3
  0
VERTEX
  5
304
330
2DE
100
AcDbEntity
  8
M-EQPM
 62
   251
420
  4674641
100
AcDbFaceRecord
 10
0.0
 20
0.0
 30
0.0
 70
   128
 71
     1
 72
    -2
 73
    25
 74
    26
  0
SEQEND
  5
305
330
2DE
100
AcDbEntity
  8
M-EQPM
 62
   251
420
  4674641
  0
POLYLINE
  5
306
330
70
100
AcDbEntity
  8
M-EQPM
 62
   251
420
  4674641
100
AcDbPolyFaceMesh
 66
     1
 10
0.0
 20
0.0
 30
0.0
 70
    64
 71
    26
 72
    12
1001
REVIT
1002
{
1070
     1
1000
19451
1002
}
1002
{
1070
     4
1000
3251
1002
}
1002
{
1070
     2
1000
-2001140
1002
}
1002
{
1070
     3
1000
11945
1002
}
  0
VERTEX
  5
307
330
306
100
AcDbEntity
  8
M-EQPM
 62
   251
420
  4674641
100
AcDbVertex
100
AcDbPolyFaceMeshVertex
 10
-438.4049626350402
 20
-429.767880821228
 30
264.9999947547913
 70
   192
  0
VERTEX
  5
308
330
306
100
AcDbEntity
  8
M-EQPM
 62
   251
420
  4674641
100
AcDbVertex
100
AcDbPolyFaceMeshVertex
 10
-438.9347994804382
 20
-433.7925261497497
 30
264.9999947547913
 70
   192
  0
VERTEX
  5
309
330
306
100
AcDbEntity
  8
M-EQPM
 62
   251
420
  4674641
100
AcDbVertex
100
AcDbPolyFaceMeshVertex
 10
-440.4882657051086
 20
-437.5428786277771
 30
264.9999947547913
 70
   192
  0
VERTEX
  5
30A
330
306
100
AcDbEntity
  8
M-EQPM
 62
   251
420
  4674641
100
AcDbVertex
100
AcDbPolyFaceMeshVertex
 10
-442.9594448089599
 20
-440.7633942604065
 30
264.9999947547913
 70
   192
  0
VERTEX
  5
30B
330
306
100
AcDbEntity
  8
M-EQPM
 62
   251
420
  4674641
100
AcDbVertex
100
AcDbPolyFaceMeshVertex
 10
-446.1799604415893
 20
-443.2345733642578
 30
264.9999947547913
 70
   192
  0
VERTEX
  5
30C
330
306
100
AcDbEntity
  8
M-EQPM
 62
   251
420
  4674641
100
AcDbVertex
100
AcDbPolyFaceMeshVertex
 10
-449.9303129196166
 20
-444.7880395889282
 30
264.9999947547913
 70
   192
  0
VERTEX
  5
30D
330
306
100
AcDbEntity
  8
M-EQPM
 62
   251
420
  4674641
100
AcDbVertex
100
AcDbPolyFaceMeshVertex
 10
-453.9549582481384
 20
-445.3178764343261
 30
264.9999947547913
 70
   192
  0
VERTEX
  5
30E
330
306
100
AcDbEntity
  8
M-EQPM
 62
   251
420
  4674641
100
AcDbVertex
100
AcDbPolyFaceMeshVertex
 10
-457.9796035766602
 20
-444.7880395889282
 30
264.9999947547913
 70
   192
  0
VERTEX
  5
30F
330
306
100
AcDbEntity
  8
M-EQPM
 62
   251
420
  4674641
100
AcDbVertex
100
AcDbPolyFaceMeshVertex
 10
-461.7299560546875
 20
-443.2345733642578
 30
264.9999947547913
 70
   192
  0
VERTEX
  5
310
330
306
100
AcDbEntity
  8
M-EQPM
 62
   251
420
  4674641
100
AcDbVertex
100
AcDbPolyFaceMeshVertex
 10
-464.9504716873169
 20
-440.7633942604065
 30
264.9999947547913
 70
   192
  0
VERTEX
  5
311
330
306
100
AcDbEntity
  8
M-EQPM
 62
   251
420
  4674641
100
AcDbVertex
100
AcDbPolyFaceMeshVertex
 10
-467.4216507911682
 20
-437.5428786277771
 30
264.9999947547913
 70
   192
  0
VERTEX
  5
312
330
306
100
AcDbEntity
  8
M-EQPM
 62
   251
420
  4674641
100
AcDbVertex
100
AcDbPolyFaceMeshVertex
 10
-468.9750806808472
 20
-433.7925261497497
 30
264.9999947547913
 70
   192
  0
VERTEX
  5
313
330
306
100
AcDbEntity
  8
M-EQPM
 62
   251
420
  4674641
100
AcDbVertex
100
AcDbPolyFaceMeshVertex
 10
-469.5049538612365
 20
-429.767880821228
 30
264.9999947547913
 70
   192
  0
VERTEX
  5
314
330
306
100
AcDbEntity
  8
M-EQPM
 62
   251
420
  4674641
100
AcDbVertex
100
AcDbPolyFaceMeshVertex
 10
-469.5049538612365
 20
-429.767880821228
 30
261.9999961853027
 70
   192
  0
VERTEX
  5
315
330
306
100
AcDbEntity
  8
M-EQPM
 62
   251
420
  4674641
100
AcDbVertex
100
AcDbPolyFaceMeshVertex
 10
-468.9750806808472
 20
-433.7925261497497
 30
261.9999961853027
 70
   192
  0
VERTEX
  5
316
330
306
100
AcDbEntity
  8
M-EQPM
 62
   251
420
  4674641
100
AcDbVertex
100
AcDbPolyFaceMeshVertex
 10
-467.4216507911682
 20
-437.5428786277771
 30
261.9999961853027
 70
   192
  0
VERTEX
  5
317
330
306
100
AcDbEntity
  8
M-EQPM
 62
   251
420
  4674641
100
AcDbVertex
100
AcDbPolyFaceMeshVertex
 10
-464.9504716873169
 20
-440.7633942604065
 30
261.9999961853027
 70
   192
  0
VERTEX
  5
318
330
306
100
AcDbEntity
  8
M-EQPM
 62
   251
420
  4674641
100
AcDbVertex
100
AcDbPolyFaceMeshVertex
 10
-461.7299560546875
 20
-443.2345733642578
 30
261.9999961853027
 70
   192
  0
VERTEX
  5
319
330
306
100
AcDbEntity
  8
M-EQPM
 62
   251
420
  4674641
100
AcDbVertex
100
AcDbPolyFaceMeshVertex
 10
-457.9796035766602
 20
-444.7880395889282
 30
261.9999961853027
 70
   192
  0
VERTEX
  5
31A
330
306
100
AcDbEntity
  8
M-EQPM
 62
   251
420
  4674641
100
AcDbVertex
100
AcDbPolyFaceMeshVertex
 10
-453.9549582481384
 20
-445.3178764343261
 30
261.9999961853027
 70
   192
  0
VERTEX
  5
31B
330
306
100
AcDbEntity
  8
M-EQPM
 62
   251
420
  4674641
100
AcDbVertex
100
AcDbPolyFaceMeshVertex
 10
-449.9303129196166
 20
-444.7880395889282
 30
261.9999961853027
 70
   192
  0
VERTEX
  5
31C
330
306
100
AcDbEntity
  8
M-EQPM
 62
   251
420
  4674641
100
AcDbVertex
100
AcDbPolyFaceMeshVertex
 10
-446.1799604415893
 20
-443.2345733642578
 30
261.9999961853027
 70
   192
  0
VERTEX
  5
31D
330
306
100
AcDbEntity
  8
M-EQPM
 62
   251
420
  4674641
100
AcDbVertex
100
AcDbPolyFaceMeshVertex
 10
-442.9594448089599
 20
-440.7633942604065
 30
261.9999961853027
 70
   192
  0
VERTEX
  5
31E
330
306
100
AcDbEntity
  8
M-EQPM
 62
   251
420
  4674641
100
AcDbVertex
100
AcDbPolyFaceMeshVertex
 10
-440.4882657051086
 20
-437.5428786277771
 30
261.9999961853027
 70
   192
  0
VERTEX
  5
31F
330
306
100
AcDbEntity
  8
M-EQPM
 62
   251
420
  4674641
100
AcDbVertex
100
AcDbPolyFaceMeshVertex
 10
-438.9347994804382
 20
-433.7925261497497
 30
261.9999961853027
 70
   192
  0
VERTEX
  5
320
330
306
100
AcDbEntity
  8
M-EQPM
 62
   251
420
  4674641
100
AcDbVertex
100
AcDbPolyFaceMeshVertex
 10
-438.4049626350402
 20
-429.767880821228
 30
261.9999961853027
 70
   192
  0
VERTEX
  5
321
330
306
100
AcDbEntity
  8
M-EQPM
 62
   251
420
  4674641
100
AcDbFaceRecord
 10
0.0
 20
0.0
 30
0.0
 70
   128
 71
    14
 72
   -15
 73
    12
 74
    13
  0
VERTEX
  5
322
330
306
100
AcDbEntity
  8
M-EQPM
 62
   251
420
  4674641
100
AcDbFaceRecord
 10
0.0
 20
0.0
 30
0.0
 70
   128
 71
    15
 72
   -16
 73
    11
 74
   -12
  0
VERTEX
  5
323
330
306
100
AcDbEntity
  8
M-EQPM
 62
   251
420
  4674641
100
AcDbFaceRecord
 10
0.0
 20
0.0
 30
0.0
 70
   128
 71
    17
 72
   -18
 73
     9
 74
   -10
  0
VERTEX
  5
324
330
306
100
AcDbEntity
  8
M-EQPM
 62
   251
420
  4674641
100
AcDbFaceRecord
 10
0.0
 20
0.0
 30
0.0
 70
   128
 71
    16
 72
   -17
 73
    10
 74
   -11
  0
VERTEX
  5
325
330
306
100
AcDbEntity
  8
M-EQPM
 62
   251
420
  4674641
100
AcDbFaceRecord
 10
0.0
 20
0.0
 30
0.0
 70
   128
 71
    18
 72
   -19
 73
     8
 74
    -9
  0
VERTEX
  5
326
330
306
100
AcDbEntity
  8
M-EQPM
 62
   251
420
  4674641
100
AcDbFaceRecord
 10
0.0
 20
0.0
 30
0.0
 70
   128
 71
     7
 72
    -8
 73
    19
 74
   -20
  0
VERTEX
  5
327
330
306
100
AcDbEntity
  8
M-EQPM
 62
   251
420
  4674641
100
AcDbFaceRecord
 10
0.0
 20
0.0
 30
0.0
 70
   128
 71
    20
 72
   -21
 73
     6
 74
    -7
  0
VERTEX
  5
328
330
306
100
AcDbEntity
  8
M-EQPM
 62
   251
420
  4674641
100
AcDbFaceRecord
 10
0.0
 20
0.0
 30
0.0
 70
   128
 71
    21
 72
   -22
 73
     5
 74
    -6
  0
VERTEX
  5
329
330
306
100
AcDbEntity
  8
M-EQPM
 62
   251
420
  4674641
100
AcDbFaceRecord
 10
0.0
 20
0.0
 30
0.0
 70
   128
 71
    23
 72
   -24
 73
     3
 74
    -4
  0
VERTEX
  5
32A
330
306
100
AcDbEntity
  8
M-EQPM
 62
   251
420
  4674641
100
AcDbFaceRecord
 10
0.0
 20
0.0
 30
0.0
 70
   128
 71
    22
 72
   -23
 73
     4
 74
    -5
  0
VERTEX
  5
32B
330
306
100
AcDbEntity
  8
M-EQPM
 62
   251
420
  4674641
100
AcDbFaceRecord
 10
0.0
 20
0.0
 30
0.0
 70
   128
 71
    24
 72
   -25
 73
     2
 74
    -3
  0
VERTEX
  5
32C
330
306
100
AcDbEntity
  8
M-EQPM
 62
   251
420
  4674641
100
AcDbFaceRecord
 10
0.0
 20
0.0
 30
0.0
 70
   128
 71
     1
 72
    -2
 73
    25
 74
    26
  0
SEQEND
  5
32D
330
306
100
AcDbEntity
  8
M-EQPM
 62
   251
420
  4674641
  0
POLYLINE
  5
32E
330
70
100
AcDbEntity
  8
M-EQPM
 62
   251
420
  4674641
100
AcDbPolyFaceMesh
 66
     1
 10
0.0
 20
0.0
 30
0.0
 70
    64
 71
    24
 72
    12
1001
REVIT
1002
{
1070
     1
1000
19512
1002
}
1002
{
1070
     4
1000
3251
1002
}
1002
{
1070
     2
1000
-2001140
1002
}
1002
{
1070
     3
1000
11945
1002
}
  0
VERTEX
  5
32F
330
32E
100
AcDbEntity
  8
M-EQPM
 62
   251
420
  4674641
100
AcDbVertex
100
AcDbPolyFaceMeshVertex
 10
-434.5523634910583
 20
-440.1492965698242
 30
264.9999947547913
 70
   192
  0
VERTEX
  5
330
330
32E
100
AcDbEntity
  8
M-EQPM
 62
   251
420
  4674641
100
AcDbVertex
100
AcDbPolyFaceMeshVertex
 10
-434.0224903106689
 20
-444.1739418983459
 30
264.9999947547913
 70
   192
  0
VERTEX
  5
331
330
32E
100
AcDbEntity
  8
M-EQPM
 62
   251
420
  4674641
100
AcDbVertex
100
AcDbPolyFaceMeshVertex
 10
-432.4690240859985
 20
-447.9242943763733
 30
264.9999947547913
 70
   192
  0
VERTEX
  5
332
330
32E
100
AcDbEntity
  8
M-EQPM
 62
   251
420
  4674641
100
AcDbVertex
100
AcDbPolyFaceMeshVertex
 10
-429.9978449821472
 20
-451.1448100090027
 30
264.9999947547913
 70
   192
  0
VERTEX
  5
333
330
32E
100
AcDbEntity
  8
M-EQPM
 62
   251
420
  4674641
100
AcDbVertex
100
AcDbPolyFaceMeshVertex
 10
-426.7773293495178
 20
-453.6160254478454
 30
264.9999947547913
 70
   192
  0
VERTEX
  5
334
330
32E
100
AcDbEntity
  8
M-EQPM
 62
   251
420
  4674641
100
AcDbVertex
100
AcDbPolyFaceMeshVertex
 10
-423.0269768714904
 20
-455.1694553375244
 30
264.9999947547913
 70
   192
  0
VERTEX
  5
335
330
32E
100
AcDbEntity
  8
M-EQPM
 62
   251
420
  4674641
100
AcDbVertex
100
AcDbPolyFaceMeshVertex
 10
-419.0023315429687
 20
-455.6993285179138
 30
264.9999947547913
 70
   192
  0
VERTEX
  5
336
330
32E
100
AcDbEntity
  8
M-EQPM
 62
   251
420
  4674641
100
AcDbVertex
100
AcDbPolyFaceMeshVertex
 10
-414.9777225494385
 20
-455.1694553375244
 30
264.9999947547913
 70
   192
  0
VERTEX
  5
337
330
32E
100
AcDbEntity
  8
M-EQPM
 62
   251
420
  4674641
100
AcDbVertex
100
AcDbPolyFaceMeshVertex
 10
-411.2273337364197
 20
-453.6160254478454
 30
264.9999947547913
 70
   192
  0
VERTEX
  5
338
330
32E
100
AcDbEntity
  8
M-EQPM
 62
   251
420
  4674641
100
AcDbVertex
100
AcDbPolyFaceMeshVertex
 10
-408.0068544387818
 20
-451.1448100090027
 30
264.9999947547913
 70
   192
  0
VERTEX
  5
339
330
32E
100
AcDbEntity
  8
M-EQPM
 62
   251
420
  4674641
100
AcDbVertex
100
AcDbPolyFaceMeshVertex
 10
-405.5356389999389
 20
-447.9242943763733
 30
264.9999947547913
 70
   192
  0
VERTEX
  5
33A
330
32E
100
AcDbEntity
  8
M-EQPM
 62
   251
420
  4674641
100
AcDbVertex
100
AcDbPolyFaceMeshVertex
 10
-403.98220911026
 20
-444.1739418983459
 30
264.9999947547913
 70
   192
  0
VERTEX
  5
33B
330
32E
100
AcDbEntity
  8
M-EQPM
 62
   251
420
  4674641
100
AcDbVertex
100
AcDbPolyFaceMeshVertex
 10
-403.4523359298706
 20
-440.1492965698242
 30
264.9999947547913
 70
   192
  0
VERTEX
  5
33C
330
32E
100
AcDbEntity
  8
M-EQPM
 62
   251
420
  4674641
100
AcDbVertex
100
AcDbPolyFaceMeshVertex
 10
-403.98220911026
 20
-436.1246875762939
 30
264.9999947547913
 70
   192
  0
VERTEX
  5
33D
330
32E
100
AcDbEntity
  8
M-EQPM
 62
   251
420
  4674641
100
AcDbVertex
100
AcDbPolyFaceMeshVertex
 10
-405.5356389999389
 20
-432.3742987632751
 30
264.9999947547913
 70
   192
  0
VERTEX
  5
33E
330
32E
100
AcDbEntity
  8
M-EQPM
 62
   251
420
  4674641
100
AcDbVertex
100
AcDbPolyFaceMeshVertex
 10
-408.0068544387818
 20
-429.1538194656372
 30
264.9999947547913
 70
   192
  0
VERTEX
  5
33F
330
32E
100
AcDbEntity
  8
M-EQPM
 62
   251
420
  4674641
100
AcDbVertex
100
AcDbPolyFaceMeshVertex
 10
-411.2273337364197
 20
-426.6826040267944
 30
264.9999947547913
 70
   192
  0
VERTEX
  5
340
330
32E
100
AcDbEntity
  8
M-EQPM
 62
   251
420
  4674641
100
AcDbVertex
100
AcDbPolyFaceMeshVertex
 10
-414.9777225494385
 20
-425.1291741371154
 30
264.9999947547913
 70
   192
  0
VERTEX
  5
341
330
32E
100
AcDbEntity
  8
M-EQPM
 62
   251
420
  4674641
100
AcDbVertex
100
AcDbPolyFaceMeshVertex
 10
-419.0023315429687
 20
-424.5993009567261
 30
264.9999947547913
 70
   192
  0
VERTEX
  5
342
330
32E
100
AcDbEntity
  8
M-EQPM
 62
   251
420
  4674641
100
AcDbVertex
100
AcDbPolyFaceMeshVertex
 10
-423.0269768714904
 20
-425.1291741371154
 30
264.9999947547913
 70
   192
  0
VERTEX
  5
343
330
32E
100
AcDbEntity
  8
M-EQPM
 62
   251
420
  4674641
100
AcDbVertex
100
AcDbPolyFaceMeshVertex
 10
-426.7773293495178
 20
-426.6826040267944
 30
264.9999947547913
 70
   192
  0
VERTEX
  5
344
330
32E
100
AcDbEntity
  8
M-EQPM
 62
   251
420
  4674641
100
AcDbVertex
100
AcDbPolyFaceMeshVertex
 10
-429.9978449821472
 20
-429.1538194656372
 30
264.9999947547913
 70
   192
  0
VERTEX
  5
345
330
32E
100
AcDbEntity
  8
M-EQPM
 62
   251
420
  4674641
100
AcDbVertex
100
AcDbPolyFaceMeshVertex
 10
-432.4690240859985
 20
-432.3742987632751
 30
264.9999947547913
 70
   192
  0
VERTEX
  5
346
330
32E
100
AcDbEntity
  8
M-EQPM
 62
   251
420
  4674641
100
AcDbVertex
100
AcDbPolyFaceMeshVertex
 10
-434.0224903106689
 20
-436.1246875762939
 30
264.9999947547913
 70
   192
  0
VERTEX
  5
347
330
32E
100
AcDbEntity
  8
M-EQPM
 62
   251
420
  4674641
100
AcDbFaceRecord
 10
0.0
 20
0.0
 30
0.0
 70
   128
 71
   -11
 72
     8
 73
     9
 74
    10
  0
VERTEX
  5
348
330
32E
100
AcDbEntity
  8
M-EQPM
 62
   251
420
  4674641
100
AcDbFaceRecord
 10
0.0
 20
0.0
 30
0.0
 70
   128
 71
    11
 72
    12
 73
   -13
 74
    -8
  0
VERTEX
  5
349
330
32E
100
AcDbEntity
  8
M-EQPM
 62
   251
420
  4674641
100
AcDbFaceRecord
 10
0.0
 20
0.0
 30
0.0
 70
   128
 71
    -8
 72
   -20
 73
     2
 74
    -3
  0
VERTEX
  5
34A
330
32E
100
AcDbEntity
  8
M-EQPM
 62
   251
420
  4674641
100
AcDbFaceRecord
 10
0.0
 20
0.0
 30
0.0
 70
   128
 71
     5
 72
     6
 73
     7
 74
    -8
  0
VERTEX
  5
34B
330
32E
100
AcDbEntity
  8
M-EQPM
 62
   251
420
  4674641
100
AcDbFaceRecord
 10
0.0
 20
0.0
 30
0.0
 70
   128
 71
     3
 72
     4
 73
    -5
 74
    -8
  0
VERTEX
  5
34C
330
32E
100
AcDbEntity
  8
M-EQPM
 62
   251
420
  4674641
100
AcDbFaceRecord
 10
0.0
 20
0.0
 30
0.0
 70
   128
 71
    -8
 72
   -13
 73
   -16
 74
   -20
  0
VERTEX
  5
34D
330
32E
100
AcDbEntity
  8
M-EQPM
 62
   251
420
  4674641
100
AcDbFaceRecord
 10
0.0
 20
0.0
 30
0.0
 70
   128
 71
    14
 72
    15
 73
   -16
 74
    13
  0
VERTEX
  5
34E
330
32E
100
AcDbEntity
  8
M-EQPM
 62
   251
420
  4674641
100
AcDbFaceRecord
 10
0.0
 20
0.0
 30
0.0
 70
   128
 71
   -18
 72
   -20
 73
    16
 74
    17
  0
VERTEX
  5
34F
330
32E
100
AcDbEntity
  8
M-EQPM
 62
   251
420
  4674641
100
AcDbFaceRecord
 10
0.0
 20
0.0
 30
0.0
 70
   128
 71
    19
 72
   -20
 73
    18
  0
VERTEX
  5
350
330
32E
100
AcDbEntity
  8
M-EQPM
 62
   251
420
  4674641
100
AcDbFaceRecord
 10
0.0
 20
0.0
 30
0.0
 70
   128
 71
    23
 72
    24
 73
     1
 74
    -2
  0
VERTEX
  5
351
330
32E
100
AcDbEntity
  8
M-EQPM
 62
   251
420
  4674641
100
AcDbFaceRecord
 10
0.0
 20
0.0
 30
0.0
 70
   128
 71
    20
 72
    21
 73
    22
 74
   -23
  0
VERTEX
  5
352
330
32E
100
AcDbEntity
  8
M-EQPM
 62
   251
420
  4674641
100
AcDbFaceRecord
 10
0.0
 20
0.0
 30
0.0
 70
   128
 71
   -20
 72
   -23
 73
    -2
  0
SEQEND
  5
353
330
32E
100
AcDbEntity
  8
M-EQPM
 62
   251
420
  4674641
  0
POLYLINE
  5
354
330
70
100
AcDbEntity
  8
M-EQPM
 62
   251
420
  4674641
100
AcDbPolyFaceMesh
 66
     1
 10
0.0
 20
0.0
 30
0.0
 70
    64
 71
    24
 72
    13
1001
REVIT
1002
{
1070
     1
1000
19512
1002
}
1002
{
1070
     4
1000
3251
1002
}
1002
{
1070
     2
1000
-2001140
1002
}
1002
{
1070
     3
1000
11945
1002
}
  0
VERTEX
  5
355
330
354
100
AcDbEntity
  8
M-EQPM
 62
   251
420
  4674641
100
AcDbVertex
100
AcDbPolyFaceMeshVertex
 10
-434.5523634910583
 20
-440.1492965698242
 30
261.9999961853027
 70
   192
  0
VERTEX
  5
356
330
354
100
AcDbEntity
  8
M-EQPM
 62
   251
420
  4674641
100
AcDbVertex
100
AcDbPolyFaceMeshVertex
 10
-434.0224903106689
 20
-436.1246875762939
 30
261.9999961853027
 70
   192
  0
VERTEX
  5
357
330
354
100
AcDbEntity
  8
M-EQPM
 62
   251
420
  4674641
100
AcDbVertex
100
AcDbPolyFaceMeshVertex
 10
-432.4690240859985
 20
-432.3742987632751
 30
261.9999961853027
 70
   192
  0
VERTEX
  5
358
330
354
100
AcDbEntity
  8
M-EQPM
 62
   251
420
  4674641
100
AcDbVertex
100
AcDbPolyFaceMeshVertex
 10
-429.9978449821472
 20
-429.1538194656372
 30
261.9999961853027
 70
   192
  0
VERTEX
  5
359
330
354
100
AcDbEntity
  8
M-EQPM
 62
   251
420
  4674641
100
AcDbVertex
100
AcDbPolyFaceMeshVertex
 10
-426.7773293495178
 20
-426.6826040267944
 30
261.9999961853027
 70
   192
  0
VERTEX
  5
35A
330
354
100
AcDbEntity
  8
M-EQPM
 62
   251
420
  4674641
100
AcDbVertex
100
AcDbPolyFaceMeshVertex
 10
-423.0269768714904
 20
-425.1291741371154
 30
261.9999961853027
 70
   192
  0
VERTEX
  5
35B
330
354
100
AcDbEntity
  8
M-EQPM
 62
   251
420
  4674641
100
AcDbVertex
100
AcDbPolyFaceMeshVertex
 10
-419.0023315429687
 20
-424.5993009567261
 30
261.9999961853027
 70
   192
  0
VERTEX
  5
35C
330
354
100
AcDbEntity
  8
M-EQPM
 62
   251
420
  4674641
100
AcDbVertex
100
AcDbPolyFaceMeshVertex
 10
-414.9777225494385
 20
-425.1291741371154
 30
261.9999961853027
 70
   192
  0
VERTEX
  5
35D
330
354
100
AcDbEntity
  8
M-EQPM
 62
   251
420
  4674641
100
AcDbVertex
100
AcDbPolyFaceMeshVertex
 10
-411.2273337364197
 20
-426.6826040267944
 30
261.9999961853027
 70
   192
  0
VERTEX
  5
35E
330
354
100
AcDbEntity
  8
M-EQPM
 62
   251
420
  4674641
100
AcDbVertex
100
AcDbPolyFaceMeshVertex
 10
-408.0068544387818
 20
-429.1538194656372
 30
261.9999961853027
 70
   192
  0
VERTEX
  5
35F
330
354
100
AcDbEntity
  8
M-EQPM
 62
   251
420
  4674641
100
AcDbVertex
100
AcDbPolyFaceMeshVertex
 10
-405.5356389999389
 20
-432.3742987632751
 30
261.9999961853027
 70
   192
  0
VERTEX
  5
360
330
354
100
AcDbEntity
  8
M-EQPM
 62
   251
420
  4674641
100
AcDbVertex
100
AcDbPolyFaceMeshVertex
 10
-403.98220911026
 20
-436.1246875762939
 30
261.9999961853027
 70
   192
  0
VERTEX
  5
361
330
354
100
AcDbEntity
  8
M-EQPM
 62
   251
420
  4674641
100
AcDbVertex
100
AcDbPolyFaceMeshVertex
 10
-403.4523359298706
 20
-440.1492965698242
 30
261.9999961853027
 70
   192
  0
VERTEX
  5
362
330
354
100
AcDbEntity
  8
M-EQPM
 62
   251
420
  4674641
100
AcDbVertex
100
AcDbPolyFaceMeshVertex
 10
-403.98220911026
 20
-444.1739418983459
 30
261.9999961853027
 70
   192
  0
VERTEX
  5
363
330
354
100
AcDbEntity
  8
M-EQPM
 62
   251
420
  4674641
100
AcDbVertex
100
AcDbPolyFaceMeshVertex
 10
-405.5356389999389
 20
-447.9242943763733
 30
261.9999961853027
 70
   192
  0
VERTEX
  5
364
330
354
100
AcDbEntity
  8
M-EQPM
 62
   251
420
  4674641
100
AcDbVertex
100
AcDbPolyFaceMeshVertex
 10
-408.0068544387818
 20
-451.1448100090027
 30
261.9999961853027
 70
   192
  0
VERTEX
  5
365
330
354
100
AcDbEntity
  8
M-EQPM
 62
   251
420
  4674641
100
AcDbVertex
100
AcDbPolyFaceMeshVertex
 10
-411.2273337364197
 20
-453.6160254478454
 30
261.9999961853027
 70
   192
  0
VERTEX
  5
366
330
354
100
AcDbEntity
  8
M-EQPM
 62
   251
420
  4674641
100
AcDbVertex
100
AcDbPolyFaceMeshVertex
 10
-414.9777225494385
 20
-455.1694553375244
 30
261.9999961853027
 70
   192
  0
VERTEX
  5
367
330
354
100
AcDbEntity
  8
M-EQPM
 62
   251
420
  4674641
100
AcDbVertex
100
AcDbPolyFaceMeshVertex
 10
-419.0023315429687
 20
-455.6993285179138
 30
261.9999961853027
 70
   192
  0
VERTEX
  5
368
330
354
100
AcDbEntity
  8
M-EQPM
 62
   251
420
  4674641
100
AcDbVertex
100
AcDbPolyFaceMeshVertex
 10
-423.0269768714904
 20
-455.1694553375244
 30
261.9999961853027
 70
   192
  0
VERTEX
  5
369
330
354
100
AcDbEntity
  8
M-EQPM
 62
   251
420
  4674641
100
AcDbVertex
100
AcDbPolyFaceMeshVertex
 10
-426.7773293495178
 20
-453.6160254478454
 30
261.9999961853027
 70
   192
  0
VERTEX
  5
36A
330
354
100
AcDbEntity
  8
M-EQPM
 62
   251
420
  4674641
100
AcDbVertex
100
AcDbPolyFaceMeshVertex
 10
-429.9978449821472
 20
-451.1448100090027
 30
261.9999961853027
 70
   192
  0
VERTEX
  5
36B
330
354
100
AcDbEntity
  8
M-EQPM
 62
   251
420
  4674641
100
AcDbVertex
100
AcDbPolyFaceMeshVertex
 10
-432.4690240859985
 20
-447.9242943763733
 30
261.9999961853027
 70
   192
  0
VERTEX
  5
36C
330
354
100
AcDbEntity
  8
M-EQPM
 62
   251
420
  4674641
100
AcDbVertex
100
AcDbPolyFaceMeshVertex
 10
-434.0224903106689
 20
-444.1739418983459
 30
261.9999961853027
 70
   192
  0
VERTEX
  5
36D
330
354
100
AcDbEntity
  8
M-EQPM
 62
   251
420
  4674641
100
AcDbFaceRecord
 10
0.0
 20
0.0
 30
0.0
 70
   128
 71
     6
 72
     7
 73
    -8
 74
   -10
  0
VERTEX
  5
36E
330
354
100
AcDbEntity
  8
M-EQPM
 62
   251
420
  4674641
100
AcDbFaceRecord
 10
0.0
 20
0.0
 30
0.0
 70
   128
 71
   -10
 72
     8
 73
     9
  0
VERTEX
  5
36F
330
354
100
AcDbEntity
  8
M-EQPM
 62
   251
420
  4674641
100
AcDbFaceRecord
 10
0.0
 20
0.0
 30
0.0
 70
   128
 71
    10
 72
    11
 73
   -12
  0
VERTEX
  5
370
330
354
100
AcDbEntity
  8
M-EQPM
 62
   251
420
  4674641
100
AcDbFaceRecord
 10
0.0
 20
0.0
 30
0.0
 70
   128
 71
   -18
 72
    -6
 73
   -10
 74
   -12
  0
VERTEX
  5
371
330
354
100
AcDbEntity
  8
M-EQPM
 62
   251
420
  4674641
100
AcDbFaceRecord
 10
0.0
 20
0.0
 30
0.0
 70
   128
 71
     4
 72
     5
 73
    -6
 74
     3
  0
VERTEX
  5
372
330
354
100
AcDbEntity
  8
M-EQPM
 62
   251
420
  4674641
100
AcDbFaceRecord
 10
0.0
 20
0.0
 30
0.0
 70
   128
 71
     1
 72
     2
 73
    -3
 74
    24
  0
VERTEX
  5
373
330
354
100
AcDbEntity
  8
M-EQPM
 62
   251
420
  4674641
100
AcDbFaceRecord
 10
0.0
 20
0.0
 30
0.0
 70
   128
 71
   -24
 72
    -3
 73
    -6
 74
   -18
  0
VERTEX
  5
374
330
354
100
AcDbEntity
  8
M-EQPM
 62
   251
420
  4674641
100
AcDbFaceRecord
 10
0.0
 20
0.0
 30
0.0
 70
   128
 71
    13
 72
    14
 73
   -15
 74
   -18
  0
VERTEX
  5
375
330
354
100
AcDbEntity
  8
M-EQPM
 62
   251
420
  4674641
100
AcDbFaceRecord
 10
0.0
 20
0.0
 30
0.0
 70
   128
 71
    17
 72
   -18
 73
    15
 74
    16
  0
VERTEX
  5
376
330
354
100
AcDbEntity
  8
M-EQPM
 62
   251
420
  4674641
100
AcDbFaceRecord
 10
0.0
 20
0.0
 30
0.0
 70
   128
 71
    21
 72
    22
 73
   -23
 74
   -18
  0
VERTEX
  5
377
330
354
100
AcDbEntity
  8
M-EQPM
 62
   251
420
  4674641
100
AcDbFaceRecord
 10
0.0
 20
0.0
 30
0.0
 70
   128
 71
    23
 72
   -24
 73
   -18
  0
VERTEX
  5
378
330
354
100
AcDbEntity
  8
M-EQPM
 62
   251
420
  4674641
100
AcDbFaceRecord
 10
0.0
 20
0.0
 30
0.0
 70
   128
 71
    19
 72
    20
 73
   -21
 74
    18
  0
VERTEX
  5
379
330
354
100
AcDbEntity
  8
M-EQPM
 62
   251
420
  4674641
100
AcDbFaceRecord
 10
0.0
 20
0.0
 30
0.0
 70
   128
 71
   -18
 72
    12
 73
   -13
  0
SEQEND
  5
37A
330
354
100
AcDbEntity
  8
M-EQPM
 62
   251
420
  4674641
  0
POLYLINE
  5
37B
330
70
100
AcDbEntity
  8
M-EQPM
 62
   251
420
  4674641
100
AcDbPolyFaceMesh
 66
     1
 10
0.0
 20
0.0
 30
0.0
 70
    64
 71
    26
 72
    12
1001
REVIT
1002
{
1070
     1
1000
19512
1002
}
1002
{
1070
     4
1000
3251
1002
}
1002
{
1070
     2
1000
-2001140
1002
}
1002
{
1070
     3
1000
11945
1002
}
  0
VERTEX
  5
37C
330
37B
100
AcDbEntity
  8
M-EQPM
 62
   251
420
  4674641
100
AcDbVertex
100
AcDbPolyFaceMeshVertex
 10
-434.5523634910583
 20
-440.1492965698242
 30
264.9999947547913
 70
   192
  0
VERTEX
  5
37D
330
37B
100
AcDbEntity
  8
M-EQPM
 62
   251
420
  4674641
100
AcDbVertex
100
AcDbPolyFaceMeshVertex
 10
-434.0224903106689
 20
-436.1246875762939
 30
264.9999947547913
 70
   192
  0
VERTEX
  5
37E
330
37B
100
AcDbEntity
  8
M-EQPM
 62
   251
420
  4674641
100
AcDbVertex
100
AcDbPolyFaceMeshVertex
 10
-432.4690240859985
 20
-432.3742987632751
 30
264.9999947547913
 70
   192
  0
VERTEX
  5
37F
330
37B
100
AcDbEntity
  8
M-EQPM
 62
   251
420
  4674641
100
AcDbVertex
100
AcDbPolyFaceMeshVertex
 10
-429.9978449821472
 20
-429.1538194656372
 30
264.9999947547913
 70
   192
  0
VERTEX
  5
380
330
37B
100
AcDbEntity
  8
M-EQPM
 62
   251
420
  4674641
100
AcDbVertex
100
AcDbPolyFaceMeshVertex
 10
-426.7773293495178
 20
-426.6826040267944
 30
264.9999947547913
 70
   192
  0
VERTEX
  5
381
330
37B
100
AcDbEntity
  8
M-EQPM
 62
   251
420
  4674641
100
AcDbVertex
100
AcDbPolyFaceMeshVertex
 10
-423.0269768714904
 20
-425.1291741371154
 30
264.9999947547913
 70
   192
  0
VERTEX
  5
382
330
37B
100
AcDbEntity
  8
M-EQPM
 62
   251
420
  4674641
100
AcDbVertex
100
AcDbPolyFaceMeshVertex
 10
-419.0023315429687
 20
-424.5993009567261
 30
264.9999947547913
 70
   192
  0
VERTEX
  5
383
330
37B
100
AcDbEntity
  8
M-EQPM
 62
   251
420
  4674641
100
AcDbVertex
100
AcDbPolyFaceMeshVertex
 10
-414.9777225494385
 20
-425.1291741371154
 30
264.9999947547913
 70
   192
  0
VERTEX
  5
384
330
37B
100
AcDbEntity
  8
M-EQPM
 62
   251
420
  4674641
100
AcDbVertex
100
AcDbPolyFaceMeshVertex
 10
-411.2273337364197
 20
-426.6826040267944
 30
264.9999947547913
 70
   192
  0
VERTEX
  5
385
330
37B
100
AcDbEntity
  8
M-EQPM
 62
   251
420
  4674641
100
AcDbVertex
100
AcDbPolyFaceMeshVertex
 10
-408.0068544387818
 20
-429.1538194656372
 30
264.9999947547913
 70
   192
  0
VERTEX
  5
386
330
37B
100
AcDbEntity
  8
M-EQPM
 62
   251
420
  4674641
100
AcDbVertex
100
AcDbPolyFaceMeshVertex
 10
-405.5356389999389
 20
-432.3742987632751
 30
264.9999947547913
 70
   192
  0
VERTEX
  5
387
330
37B
100
AcDbEntity
  8
M-EQPM
 62
   251
420
  4674641
100
AcDbVertex
100
AcDbPolyFaceMeshVertex
 10
-403.98220911026
 20
-436.1246875762939
 30
264.9999947547913
 70
   192
  0
VERTEX
  5
388
330
37B
100
AcDbEntity
  8
M-EQPM
 62
   251
420
  4674641
100
AcDbVertex
100
AcDbPolyFaceMeshVertex
 10
-403.4523359298706
 20
-440.1492965698242
 30
264.9999947547913
 70
   192
  0
VERTEX
  5
389
330
37B
100
AcDbEntity
  8
M-EQPM
 62
   251
420
  4674641
100
AcDbVertex
100
AcDbPolyFaceMeshVertex
 10
-403.4523359298706
 20
-440.1492965698242
 30
261.9999961853027
 70
   192
  0
VERTEX
  5
38A
330
37B
100
AcDbEntity
  8
M-EQPM
 62
   251
420
  4674641
100
AcDbVertex
100
AcDbPolyFaceMeshVertex
 10
-403.98220911026
 20
-436.1246875762939
 30
261.9999961853027
 70
   192
  0
VERTEX
  5
38B
330
37B
100
AcDbEntity
  8
M-EQPM
 62
   251
420
  4674641
100
AcDbVertex
100
AcDbPolyFaceMeshVertex
 10
-405.5356389999389
 20
-432.3742987632751
 30
261.9999961853027
 70
   192
  0
VERTEX
  5
38C
330
37B
100
AcDbEntity
  8
M-EQPM
 62
   251
420
  4674641
100
AcDbVertex
100
AcDbPolyFaceMeshVertex
 10
-408.0068544387818
 20
-429.1538194656372
 30
261.9999961853027
 70
   192
  0
VERTEX
  5
38D
330
37B
100
AcDbEntity
  8
M-EQPM
 62
   251
420
  4674641
100
AcDbVertex
100
AcDbPolyFaceMeshVertex
 10
-411.2273337364197
 20
-426.6826040267944
 30
261.9999961853027
 70
   192
  0
VERTEX
  5
38E
330
37B
100
AcDbEntity
  8
M-EQPM
 62
   251
420
  4674641
100
AcDbVertex
100
AcDbPolyFaceMeshVertex
 10
-414.9777225494385
 20
-425.1291741371154
 30
261.9999961853027
 70
   192
  0
VERTEX
  5
38F
330
37B
100
AcDbEntity
  8
M-EQPM
 62
   251
420
  4674641
100
AcDbVertex
100
AcDbPolyFaceMeshVertex
 10
-419.0023315429687
 20
-424.5993009567261
 30
261.9999961853027
 70
   192
  0
VERTEX
  5
390
330
37B
100
AcDbEntity
  8
M-EQPM
 62
   251
420
  4674641
100
AcDbVertex
100
AcDbPolyFaceMeshVertex
 10
-423.0269768714904
 20
-425.1291741371154
 30
261.9999961853027
 70
   192
  0
VERTEX
  5
391
330
37B
100
AcDbEntity
  8
M-EQPM
 62
   251
420
  4674641
100
AcDbVertex
100
AcDbPolyFaceMeshVertex
 10
-426.7773293495178
 20
-426.6826040267944
 30
261.9999961853027
 70
   192
  0
VERTEX
  5
392
330
37B
100
AcDbEntity
  8
M-EQPM
 62
   251
420
  4674641
100
AcDbVertex
100
AcDbPolyFaceMeshVertex
 10
-429.9978449821472
 20
-429.1538194656372
 30
261.9999961853027
 70
   192
  0
VERTEX
  5
393
330
37B
100
AcDbEntity
  8
M-EQPM
 62
   251
420
  4674641
100
AcDbVertex
100
AcDbPolyFaceMeshVertex
 10
-432.4690240859985
 20
-432.3742987632751
 30
261.9999961853027
 70
   192
  0
VERTEX
  5
394
330
37B
100
AcDbEntity
  8
M-EQPM
 62
   251
420
  4674641
100
AcDbVertex
100
AcDbPolyFaceMeshVertex
 10
-434.0224903106689
 20
-436.1246875762939
 30
261.9999961853027
 70
   192
  0
VERTEX
  5
395
330
37B
100
AcDbEntity
  8
M-EQPM
 62
   251
420
  4674641
100
AcDbVertex
100
AcDbPolyFaceMeshVertex
 10
-434.5523634910583
 20
-440.1492965698242
 30
261.9999961853027
 70
   192
  0
VERTEX
  5
396
330
37B
100
AcDbEntity
  8
M-EQPM
 62
   251
420
  4674641
100
AcDbFaceRecord
 10
0.0
 20
0.0
 30
0.0
 70
   128
 71
    14
 72
   -15
 73
    12
 74
    13
  0
VERTEX
  5
397
330
37B
100
AcDbEntity
  8
M-EQPM
 62
   251
420
  4674641
100
AcDbFaceRecord
 10
0.0
 20
0.0
 30
0.0
 70
   128
 71
    15
 72
   -16
 73
    11
 74
   -12
  0
VERTEX
  5
398
330
37B
100
AcDbEntity
  8
M-EQPM
 62
   251
420
  4674641
100
AcDbFaceRecord
 10
0.0
 20
0.0
 30
0.0
 70
   128
 71
    17
 72
   -18
 73
     9
 74
   -10
  0
VERTEX
  5
399
330
37B
100
AcDbEntity
  8
M-EQPM
 62
   251
420
  4674641
100
AcDbFaceRecord
 10
0.0
 20
0.0
 30
0.0
 70
   128
 71
    16
 72
   -17
 73
    10
 74
   -11
  0
VERTEX
  5
39A
330
37B
100
AcDbEntity
  8
M-EQPM
 62
   251
420
  4674641
100
AcDbFaceRecord
 10
0.0
 20
0.0
 30
0.0
 70
   128
 71
    18
 72
   -19
 73
     8
 74
    -9
  0
VERTEX
  5
39B
330
37B
100
AcDbEntity
  8
M-EQPM
 62
   251
420
  4674641
100
AcDbFaceRecord
 10
0.0
 20
0.0
 30
0.0
 70
   128
 71
     7
 72
    -8
 73
    19
 74
   -20
  0
VERTEX
  5
39C
330
37B
100
AcDbEntity
  8
M-EQPM
 62
   251
420
  4674641
100
AcDbFaceRecord
 10
0.0
 20
0.0
 30
0.0
 70
   128
 71
    20
 72
   -21
 73
     6
 74
    -7
  0
VERTEX
  5
39D
330
37B
100
AcDbEntity
  8
M-EQPM
 62
   251
420
  4674641
100
AcDbFaceRecord
 10
0.0
 20
0.0
 30
0.0
 70
   128
 71
    21
 72
   -22
 73
     5
 74
    -6
  0
VERTEX
  5
39E
330
37B
100
AcDbEntity
  8
M-EQPM
 62
   251
420
  4674641
100
AcDbFaceRecord
 10
0.0
 20
0.0
 30
0.0
 70
   128
 71
    23
 72
   -24
 73
     3
 74
    -4
  0
VERTEX
  5
39F
330
37B
100
AcDbEntity
  8
M-EQPM
 62
   251
420
  4674641
100
AcDbFaceRecord
 10
0.0
 20
0.0
 30
0.0
 70
   128
 71
    22
 72
   -23
 73
     4
 74
    -5
  0
VERTEX
  5
3A0
330
37B
100
AcDbEntity
  8
M-EQPM
 62
   251
420
  4674641
100
AcDbFaceRecord
 10
0.0
 20
0.0
 30
0.0
 70
   128
 71
    24
 72
   -25
 73
     2
 74
    -3
  0
VERTEX
  5
3A1
330
37B
100
AcDbEntity
  8
M-EQPM
 62
   251
420
  4674641
100
AcDbFaceRecord
 10
0.0
 20
0.0
 30
0.0
 70
   128
 71
     1
 72
    -2
 73
    25
 74
    26
  0
SEQEND
  5
3A2
330
37B
100
AcDbEntity
  8
M-EQPM
 62
   251
420
  4674641
  0
POLYLINE
  5
3A3
330
70
100
AcDbEntity
  8
M-EQPM
 62
   251
420
  4674641
100
AcDbPolyFaceMesh
 66
     1
 10
0.0
 20
0.0
 30
0.0
 70
    64
 71
    26
 72
    12
1001
REVIT
1002
{
1070
     1
1000
19512
1002
}
1002
{
1070
     4
1000
3251
1002
}
1002
{
1070
     2
1000
-2001140
1002
}
1002
{
1070
     3
1000
11945
1002
}
  0
VERTEX
  5
3A4
330
3A3
100
AcDbEntity
  8
M-EQPM
 62
   251
420
  4674641
100
AcDbVertex
100
AcDbPolyFaceMeshVertex
 10
-403.4523359298706
 20
-440.1492965698242
 30
264.9999947547913
 70
   192
  0
VERTEX
  5
3A5
330
3A3
100
AcDbEntity
  8
M-EQPM
 62
   251
420
  4674641
100
AcDbVertex
100
AcDbPolyFaceMeshVertex
 10
-403.98220911026
 20
-444.1739418983459
 30
264.9999947547913
 70
   192
  0
VERTEX
  5
3A6
330
3A3
100
AcDbEntity
  8
M-EQPM
 62
   251
420
  4674641
100
AcDbVertex
100
AcDbPolyFaceMeshVertex
 10
-405.5356389999389
 20
-447.9242943763733
 30
264.9999947547913
 70
   192
  0
VERTEX
  5
3A7
330
3A3
100
AcDbEntity
  8
M-EQPM
 62
   251
420
  4674641
100
AcDbVertex
100
AcDbPolyFaceMeshVertex
 10
-408.0068544387818
 20
-451.1448100090027
 30
264.9999947547913
 70
   192
  0
VERTEX
  5
3A8
330
3A3
100
AcDbEntity
  8
M-EQPM
 62
   251
420
  4674641
100
AcDbVertex
100
AcDbPolyFaceMeshVertex
 10
-411.2273337364197
 20
-453.6160254478454
 30
264.9999947547913
 70
   192
  0
VERTEX
  5
3A9
330
3A3
100
AcDbEntity
  8
M-EQPM
 62
   251
420
  4674641
100
AcDbVertex
100
AcDbPolyFaceMeshVertex
 10
-414.9777225494385
 20
-455.1694553375244
 30
264.9999947547913
 70
   192
  0
VERTEX
  5
3AA
330
3A3
100
AcDbEntity
  8
M-EQPM
 62
   251
420
  4674641
100
AcDbVertex
100
AcDbPolyFaceMeshVertex
 10
-419.0023315429687
 20
-455.6993285179138
 30
264.9999947547913
 70
   192
  0
VERTEX
  5
3AB
330
3A3
100
AcDbEntity
  8
M-EQPM
 62
   251
420
  4674641
100
AcDbVertex
100
AcDbPolyFaceMeshVertex
 10
-423.0269768714904
 20
-455.1694553375244
 30
264.9999947547913
 70
   192
  0
VERTEX
  5
3AC
330
3A3
100
AcDbEntity
  8
M-EQPM
 62
   251
420
  4674641
100
AcDbVertex
100
AcDbPolyFaceMeshVertex
 10
-426.7773293495178
 20
-453.6160254478454
 30
264.9999947547913
 70
   192
  0
VERTEX
  5
3AD
330
3A3
100
AcDbEntity
  8
M-EQPM
 62
   251
420
  4674641
100
AcDbVertex
100
AcDbPolyFaceMeshVertex
 10
-429.9978449821472
 20
-451.1448100090027
 30
264.9999947547913
 70
   192
  0
VERTEX
  5
3AE
330
3A3
100
AcDbEntity
  8
M-EQPM
 62
   251
420
  4674641
100
AcDbVertex
100
AcDbPolyFaceMeshVertex
 10
-432.4690240859985
 20
-447.9242943763733
 30
264.9999947547913
 70
   192
  0
VERTEX
  5
3AF
330
3A3
100
AcDbEntity
  8
M-EQPM
 62
   251
420
  4674641
100
AcDbVertex
100
AcDbPolyFaceMeshVertex
 10
-434.0224903106689
 20
-444.1739418983459
 30
264.9999947547913
 70
   192
  0
VERTEX
  5
3B0
330
3A3
100
AcDbEntity
  8
M-EQPM
 62
   251
420
  4674641
100
AcDbVertex
100
AcDbPolyFaceMeshVertex
 10
-434.5523634910583
 20
-440.1492965698242
 30
264.9999947547913
 70
   192
  0
VERTEX
  5
3B1
330
3A3
100
AcDbEntity
  8
M-EQPM
 62
   251
420
  4674641
100
AcDbVertex
100
AcDbPolyFaceMeshVertex
 10
-434.5523634910583
 20
-440.1492965698242
 30
261.9999961853027
 70
   192
  0
VERTEX
  5
3B2
330
3A3
100
AcDbEntity
  8
M-EQPM
 62
   251
420
  4674641
100
AcDbVertex
100
AcDbPolyFaceMeshVertex
 10
-434.0224903106689
 20
-444.1739418983459
 30
261.9999961853027
 70
   192
  0
VERTEX
  5
3B3
330
3A3
100
AcDbEntity
  8
M-EQPM
 62
   251
420
  4674641
100
AcDbVertex
100
AcDbPolyFaceMeshVertex
 10
-432.4690240859985
 20
-447.9242943763733
 30
261.9999961853027
 70
   192
  0
VERTEX
  5
3B4
330
3A3
100
AcDbEntity
  8
M-EQPM
 62
   251
420
  4674641
100
AcDbVertex
100
AcDbPolyFaceMeshVertex
 10
-429.9978449821472
 20
-451.1448100090027
 30
261.9999961853027
 70
   192
  0
VERTEX
  5
3B5
330
3A3
100
AcDbEntity
  8
M-EQPM
 62
   251
420
  4674641
100
AcDbVertex
100
AcDbPolyFaceMeshVertex
 10
-426.7773293495178
 20
-453.6160254478454
 30
261.9999961853027
 70
   192
  0
VERTEX
  5
3B6
330
3A3
100
AcDbEntity
  8
M-EQPM
 62
   251
420
  4674641
100
AcDbVertex
100
AcDbPolyFaceMeshVertex
 10
-423.0269768714904
 20
-455.1694553375244
 30
261.9999961853027
 70
   192
  0
VERTEX
  5
3B7
330
3A3
100
AcDbEntity
  8
M-EQPM
 62
   251
420
  4674641
100
AcDbVertex
100
AcDbPolyFaceMeshVertex
 10
-419.0023315429687
 20
-455.6993285179138
 30
261.9999961853027
 70
   192
  0
VERTEX
  5
3B8
330
3A3
100
AcDbEntity
  8
M-EQPM
 62
   251
420
  4674641
100
AcDbVertex
100
AcDbPolyFaceMeshVertex
 10
-414.9777225494385
 20
-455.1694553375244
 30
261.9999961853027
 70
   192
  0
VERTEX
  5
3B9
330
3A3
100
AcDbEntity
  8
M-EQPM
 62
   251
420
  4674641
100
AcDbVertex
100
AcDbPolyFaceMeshVertex
 10
-411.2273337364197
 20
-453.6160254478454
 30
261.9999961853027
 70
   192
  0
VERTEX
  5
3BA
330
3A3
100
AcDbEntity
  8
M-EQPM
 62
   251
420
  4674641
100
AcDbVertex
100
AcDbPolyFaceMeshVertex
 10
-408.0068544387818
 20
-451.1448100090027
 30
261.9999961853027
 70
   192
  0
VERTEX
  5
3BB
330
3A3
100
AcDbEntity
  8
M-EQPM
 62
   251
420
  4674641
100
AcDbVertex
100
AcDbPolyFaceMeshVertex
 10
-405.5356389999389
 20
-447.9242943763733
 30
261.9999961853027
 70
   192
  0
VERTEX
  5
3BC
330
3A3
100
AcDbEntity
  8
M-EQPM
 62
   251
420
  4674641
100
AcDbVertex
100
AcDbPolyFaceMeshVertex
 10
-403.98220911026
 20
-444.1739418983459
 30
261.9999961853027
 70
   192
  0
VERTEX
  5
3BD
330
3A3
100
AcDbEntity
  8
M-EQPM
 62
   251
420
  4674641
100
AcDbVertex
100
AcDbPolyFaceMeshVertex
 10
-403.4523359298706
 20
-440.1492965698242
 30
261.9999961853027
 70
   192
  0
VERTEX
  5
3BE
330
3A3
100
AcDbEntity
  8
M-EQPM
 62
   251
420
  4674641
100
AcDbFaceRecord
 10
0.0
 20
0.0
 30
0.0
 70
   128
 71
    14
 72
   -15
 73
    12
 74
    13
  0
VERTEX
  5
3BF
330
3A3
100
AcDbEntity
  8
M-EQPM
 62
   251
420
  4674641
100
AcDbFaceRecord
 10
0.0
 20
0.0
 30
0.0
 70
   128
 71
    15
 72
   -16
 73
    11
 74
   -12
  0
VERTEX
  5
3C0
330
3A3
100
AcDbEntity
  8
M-EQPM
 62
   251
420
  4674641
100
AcDbFaceRecord
 10
0.0
 20
0.0
 30
0.0
 70
   128
 71
    17
 72
   -18
 73
     9
 74
   -10
  0
VERTEX
  5
3C1
330
3A3
100
AcDbEntity
  8
M-EQPM
 62
   251
420
  4674641
100
AcDbFaceRecord
 10
0.0
 20
0.0
 30
0.0
 70
   128
 71
    16
 72
   -17
 73
    10
 74
   -11
  0
VERTEX
  5
3C2
330
3A3
100
AcDbEntity
  8
M-EQPM
 62
   251
420
  4674641
100
AcDbFaceRecord
 10
0.0
 20
0.0
 30
0.0
 70
   128
 71
    18
 72
   -19
 73
     8
 74
    -9
  0
VERTEX
  5
3C3
330
3A3
100
AcDbEntity
  8
M-EQPM
 62
   251
420
  4674641
100
AcDbFaceRecord
 10
0.0
 20
0.0
 30
0.0
 70
   128
 71
     7
 72
    -8
 73
    19
 74
   -20
  0
VERTEX
  5
3C4
330
3A3
100
AcDbEntity
  8
M-EQPM
 62
   251
420
  4674641
100
AcDbFaceRecord
 10
0.0
 20
0.0
 30
0.0
 70
   128
 71
    20
 72
   -21
 73
     6
 74
    -7
  0
VERTEX
  5
3C5
330
3A3
100
AcDbEntity
  8
M-EQPM
 62
   251
420
  4674641
100
AcDbFaceRecord
 10
0.0
 20
0.0
 30
0.0
 70
   128
 71
    21
 72
   -22
 73
     5
 74
    -6
  0
VERTEX
  5
3C6
330
3A3
100
AcDbEntity
  8
M-EQPM
 62
   251
420
  4674641
100
AcDbFaceRecord
 10
0.0
 20
0.0
 30
0.0
 70
   128
 71
    23
 72
   -24
 73
     3
 74
    -4
  0
VERTEX
  5
3C7
330
3A3
100
AcDbEntity
  8
M-EQPM
 62
   251
420
  4674641
100
AcDbFaceRecord
 10
0.0
 20
0.0
 30
0.0
 70
   128
 71
    22
 72
   -23
 73
     4
 74
    -5
  0
VERTEX
  5
3C8
330
3A3
100
AcDbEntity
  8
M-EQPM
 62
   251
420
  4674641
100
AcDbFaceRecord
 10
0.0
 20
0.0
 30
0.0
 70
   128
 71
    24
 72
   -25
 73
     2
 74
    -3
  0
VERTEX
  5
3C9
330
3A3
100
AcDbEntity
  8
M-EQPM
 62
   251
420
  4674641
100
AcDbFaceRecord
 10
0.0
 20
0.0
 30
0.0
 70
   128
 71
     1
 72
    -2
 73
    25
 74
    26
  0
SEQEND
  5
3CA
330
3A3
100
AcDbEntity
  8
M-EQPM
 62
   251
420
  4674641
  0
POLYLINE
  5
3CB
330
70
100
AcDbEntity
  8
M-EQPM
 62
   251
420
  4674641
100
AcDbPolyFaceMesh
 66
     1
 10
0.0
 20
0.0
 30
0.0
 70
    64
 71
    24
 72
    12
1001
REVIT
1002
{
1070
     1
1000
19848
1002
}
1002
{
1070
     4
1000
3251
1002
}
1002
{
1070
     2
1000
-2001140
1002
}
1002
{
1070
     3
1000
11945
1002
}
  0
VERTEX
  5
3CC
330
3CB
100
AcDbEntity
  8
M-EQPM
 62
   251
420
  4674641
100
AcDbVertex
100
AcDbPolyFaceMeshVertex
 10
-461.0619009017944
 20
-465.6079170227051
 30
264.9999947547913
 70
   192
  0
VERTEX
  5
3CD
330
3CB
100
AcDbEntity
  8
M-EQPM
 62
   251
420
  4674641
100
AcDbVertex
100
AcDbPolyFaceMeshVertex
 10
-460.532027721405
 20
-469.6325623512268
 30
264.9999947547913
 70
   192
  0
VERTEX
  5
3CE
330
3CB
100
AcDbEntity
  8
M-EQPM
 62
   251
420
  4674641
100
AcDbVertex
100
AcDbPolyFaceMeshVertex
 10
-458.978597831726
 20
-473.3829148292541
 30
264.9999947547913
 70
   192
  0
VERTEX
  5
3CF
330
3CB
100
AcDbEntity
  8
M-EQPM
 62
   251
420
  4674641
100
AcDbVertex
100
AcDbPolyFaceMeshVertex
 10
-456.5074187278748
 20
-476.6034304618836
 30
264.9999947547913
 70
   192
  0
VERTEX
  5
3D0
330
3CB
100
AcDbEntity
  8
M-EQPM
 62
   251
420
  4674641
100
AcDbVertex
100
AcDbPolyFaceMeshVertex
 10
-453.2869030952453
 20
-479.0746095657349
 30
264.9999947547913
 70
   192
  0
VERTEX
  5
3D1
330
3CB
100
AcDbEntity
  8
M-EQPM
 62
   251
420
  4674641
100
AcDbVertex
100
AcDbPolyFaceMeshVertex
 10
-449.536550617218
 20
-480.6280757904053
 30
264.9999947547913
 70
   192
  0
VERTEX
  5
3D2
330
3CB
100
AcDbEntity
  8
M-EQPM
 62
   251
420
  4674641
100
AcDbVertex
100
AcDbPolyFaceMeshVertex
 10
-445.5119052886963
 20
-481.1579126358032
 30
264.9999947547913
 70
   192
  0
VERTEX
  5
3D3
330
3CB
100
AcDbEntity
  8
M-EQPM
 62
   251
420
  4674641
100
AcDbVertex
100
AcDbPolyFaceMeshVertex
 10
-441.4872599601745
 20
-480.6280757904053
 30
264.9999947547913
 70
   192
  0
VERTEX
  5
3D4
330
3CB
100
AcDbEntity
  8
M-EQPM
 62
   251
420
  4674641
100
AcDbVertex
100
AcDbPolyFaceMeshVertex
 10
-437.7369074821472
 20
-479.0746095657349
 30
264.9999947547913
 70
   192
  0
VERTEX
  5
3D5
330
3CB
100
AcDbEntity
  8
M-EQPM
 62
   251
420
  4674641
100
AcDbVertex
100
AcDbPolyFaceMeshVertex
 10
-434.5163918495178
 20
-476.6034304618836
 30
264.9999947547913
 70
   192
  0
VERTEX
  5
3D6
330
3CB
100
AcDbEntity
  8
M-EQPM
 62
   251
420
  4674641
100
AcDbVertex
100
AcDbPolyFaceMeshVertex
 10
-432.0452127456665
 20
-473.3829148292541
 30
264.9999947547913
 70
   192
  0
VERTEX
  5
3D7
330
3CB
100
AcDbEntity
  8
M-EQPM
 62
   251
420
  4674641
100
AcDbVertex
100
AcDbPolyFaceMeshVertex
 10
-430.491746520996
 20
-469.6325623512268
 30
264.9999947547913
 70
   192
  0
VERTEX
  5
3D8
330
3CB
100
AcDbEntity
  8
M-EQPM
 62
   251
420
  4674641
100
AcDbVertex
100
AcDbPolyFaceMeshVertex
 10
-429.9619096755981
 20
-465.6079170227051
 30
264.9999947547913
 70
   192
  0
VERTEX
  5
3D9
330
3CB
100
AcDbEntity
  8
M-EQPM
 62
   251
420
  4674641
100
AcDbVertex
100
AcDbPolyFaceMeshVertex
 10
-430.491746520996
 20
-461.5832716941834
 30
264.9999947547913
 70
   192
  0
VERTEX
  5
3DA
330
3CB
100
AcDbEntity
  8
M-EQPM
 62
   251
420
  4674641
100
AcDbVertex
100
AcDbPolyFaceMeshVertex
 10
-432.0452127456665
 20
-457.832919216156
 30
264.9999947547913
 70
   192
  0
VERTEX
  5
3DB
330
3CB
100
AcDbEntity
  8
M-EQPM
 62
   251
420
  4674641
100
AcDbVertex
100
AcDbPolyFaceMeshVertex
 10
-434.5163918495178
 20
-454.6124035835266
 30
264.9999947547913
 70
   192
  0
VERTEX
  5
3DC
330
3CB
100
AcDbEntity
  8
M-EQPM
 62
   251
420
  4674641
100
AcDbVertex
100
AcDbPolyFaceMeshVertex
 10
-437.7369074821472
 20
-452.1412244796753
 30
264.9999947547913
 70
   192
  0
VERTEX
  5
3DD
330
3CB
100
AcDbEntity
  8
M-EQPM
 62
   251
420
  4674641
100
AcDbVertex
100
AcDbPolyFaceMeshVertex
 10
-441.4872599601745
 20
-450.5877582550048
 30
264.9999947547913
 70
   192
  0
VERTEX
  5
3DE
330
3CB
100
AcDbEntity
  8
M-EQPM
 62
   251
420
  4674641
100
AcDbVertex
100
AcDbPolyFaceMeshVertex
 10
-445.5119052886963
 20
-450.0579214096069
 30
264.9999947547913
 70
   192
  0
VERTEX
  5
3DF
330
3CB
100
AcDbEntity
  8
M-EQPM
 62
   251
420
  4674641
100
AcDbVertex
100
AcDbPolyFaceMeshVertex
 10
-449.536550617218
 20
-450.5877582550048
 30
264.9999947547913
 70
   192
  0
VERTEX
  5
3E0
330
3CB
100
AcDbEntity
  8
M-EQPM
 62
   251
420
  4674641
100
AcDbVertex
100
AcDbPolyFaceMeshVertex
 10
-453.2869030952453
 20
-452.1412244796753
 30
264.9999947547913
 70
   192
  0
VERTEX
  5
3E1
330
3CB
100
AcDbEntity
  8
M-EQPM
 62
   251
420
  4674641
100
AcDbVertex
100
AcDbPolyFaceMeshVertex
 10
-456.5074187278748
 20
-454.6124035835266
 30
264.9999947547913
 70
   192
  0
VERTEX
  5
3E2
330
3CB
100
AcDbEntity
  8
M-EQPM
 62
   251
420
  4674641
100
AcDbVertex
100
AcDbPolyFaceMeshVertex
 10
-458.978597831726
 20
-457.832919216156
 30
264.9999947547913
 70
   192
  0
VERTEX
  5
3E3
330
3CB
100
AcDbEntity
  8
M-EQPM
 62
   251
420
  4674641
100
AcDbVertex
100
AcDbPolyFaceMeshVertex
 10
-460.532027721405
 20
-461.5832716941834
 30
264.9999947547913
 70
   192
  0
VERTEX
  5
3E4
330
3CB
100
AcDbEntity
  8
M-EQPM
 62
   251
420
  4674641
100
AcDbFaceRecord
 10
0.0
 20
0.0
 30
0.0
 70
   128
 71
   -11
 72
     8
 73
     9
 74
    10
  0
VERTEX
  5
3E5
330
3CB
100
AcDbEntity
  8
M-EQPM
 62
   251
420
  4674641
100
AcDbFaceRecord
 10
0.0
 20
0.0
 30
0.0
 70
   128
 71
    11
 72
    12
 73
   -13
 74
    -8
  0
VERTEX
  5
3E6
330
3CB
100
AcDbEntity
  8
M-EQPM
 62
   251
420
  4674641
100
AcDbFaceRecord
 10
0.0
 20
0.0
 30
0.0
 70
   128
 71
    -8
 72
   -20
 73
     2
 74
    -3
  0
VERTEX
  5
3E7
330
3CB
100
AcDbEntity
  8
M-EQPM
 62
   251
420
  4674641
100
AcDbFaceRecord
 10
0.0
 20
0.0
 30
0.0
 70
   128
 71
     5
 72
     6
 73
     7
 74
    -8
  0
VERTEX
  5
3E8
330
3CB
100
AcDbEntity
  8
M-EQPM
 62
   251
420
  4674641
100
AcDbFaceRecord
 10
0.0
 20
0.0
 30
0.0
 70
   128
 71
     3
 72
     4
 73
    -5
 74
    -8
  0
VERTEX
  5
3E9
330
3CB
100
AcDbEntity
  8
M-EQPM
 62
   251
420
  4674641
100
AcDbFaceRecord
 10
0.0
 20
0.0
 30
0.0
 70
   128
 71
    -8
 72
   -13
 73
   -16
 74
   -20
  0
VERTEX
  5
3EA
330
3CB
100
AcDbEntity
  8
M-EQPM
 62
   251
420
  4674641
100
AcDbFaceRecord
 10
0.0
 20
0.0
 30
0.0
 70
   128
 71
    14
 72
    15
 73
   -16
 74
    13
  0
VERTEX
  5
3EB
330
3CB
100
AcDbEntity
  8
M-EQPM
 62
   251
420
  4674641
100
AcDbFaceRecord
 10
0.0
 20
0.0
 30
0.0
 70
   128
 71
   -18
 72
   -20
 73
    16
 74
    17
  0
VERTEX
  5
3EC
330
3CB
100
AcDbEntity
  8
M-EQPM
 62
   251
420
  4674641
100
AcDbFaceRecord
 10
0.0
 20
0.0
 30
0.0
 70
   128
 71
    19
 72
   -20
 73
    18
  0
VERTEX
  5
3ED
330
3CB
100
AcDbEntity
  8
M-EQPM
 62
   251
420
  4674641
100
AcDbFaceRecord
 10
0.0
 20
0.0
 30
0.0
 70
   128
 71
    23
 72
    24
 73
     1
 74
    -2
  0
VERTEX
  5
3EE
330
3CB
100
AcDbEntity
  8
M-EQPM
 62
   251
420
  4674641
100
AcDbFaceRecord
 10
0.0
 20
0.0
 30
0.0
 70
   128
 71
    20
 72
    21
 73
    22
 74
   -23
  0
VERTEX
  5
3EF
330
3CB
100
AcDbEntity
  8
M-EQPM
 62
   251
420
  4674641
100
AcDbFaceRecord
 10
0.0
 20
0.0
 30
0.0
 70
   128
 71
   -20
 72
   -23
 73
    -2
  0
SEQEND
  5
3F0
330
3CB
100
AcDbEntity
  8
M-EQPM
 62
   251
420
  4674641
  0
POLYLINE
  5
3F1
330
70
100
AcDbEntity
  8
M-EQPM
 62
   251
420
  4674641
100
AcDbPolyFaceMesh
 66
     1
 10
0.0
 20
0.0
 30
0.0
 70
    64
 71
    24
 72
    13
1001
REVIT
1002
{
1070
     1
1000
19848
1002
}
1002
{
1070
     4
1000
3251
1002
}
1002
{
1070
     2
1000
-2001140
1002
}
1002
{
1070
     3
1000
11945
1002
}
  0
VERTEX
  5
3F2
330
3F1
100
AcDbEntity
  8
M-EQPM
 62
   251
420
  4674641
100
AcDbVertex
100
AcDbPolyFaceMeshVertex
 10
-461.0619009017944
 20
-465.6079170227051
 30
261.9999961853027
 70
   192
  0
VERTEX
  5
3F3
330
3F1
100
AcDbEntity
  8
M-EQPM
 62
   251
420
  4674641
100
AcDbVertex
100
AcDbPolyFaceMeshVertex
 10
-460.532027721405
 20
-461.5832716941834
 30
261.9999961853027
 70
   192
  0
VERTEX
  5
3F4
330
3F1
100
AcDbEntity
  8
M-EQPM
 62
   251
420
  4674641
100
AcDbVertex
100
AcDbPolyFaceMeshVertex
 10
-458.978597831726
 20
-457.832919216156
 30
261.9999961853027
 70
   192
  0
VERTEX
  5
3F5
330
3F1
100
AcDbEntity
  8
M-EQPM
 62
   251
420
  4674641
100
AcDbVertex
100
AcDbPolyFaceMeshVertex
 10
-456.5074187278748
 20
-454.6124035835266
 30
261.9999961853027
 70
   192
  0
VERTEX
  5
3F6
330
3F1
100
AcDbEntity
  8
M-EQPM
 62
   251
420
  4674641
100
AcDbVertex
100
AcDbPolyFaceMeshVertex
 10
-453.2869030952453
 20
-452.1412244796753
 30
261.9999961853027
 70
   192
  0
VERTEX
  5
3F7
330
3F1
100
AcDbEntity
  8
M-EQPM
 62
   251
420
  4674641
100
AcDbVertex
100
AcDbPolyFaceMeshVertex
 10
-449.536550617218
 20
-450.5877582550048
 30
261.9999961853027
 70
   192
  0
VERTEX
  5
3F8
330
3F1
100
AcDbEntity
  8
M-EQPM
 62
   251
420
  4674641
100
AcDbVertex
100
AcDbPolyFaceMeshVertex
 10
-445.5119052886963
 20
-450.0579214096069
 30
261.9999961853027
 70
   192
  0
VERTEX
  5
3F9
330
3F1
100
AcDbEntity
  8
M-EQPM
 62
   251
420
  4674641
100
AcDbVertex
100
AcDbPolyFaceMeshVertex
 10
-441.4872599601745
 20
-450.5877582550048
 30
261.9999961853027
 70
   192
  0
VERTEX
  5
3FA
330
3F1
100
AcDbEntity
  8
M-EQPM
 62
   251
420
  4674641
100
AcDbVertex
100
AcDbPolyFaceMeshVertex
 10
-437.7369074821472
 20
-452.1412244796753
 30
261.9999961853027
 70
   192
  0
VERTEX
  5
3FB
330
3F1
100
AcDbEntity
  8
M-EQPM
 62
   251
420
  4674641
100
AcDbVertex
100
AcDbPolyFaceMeshVertex
 10
-434.5163918495178
 20
-454.6124035835266
 30
261.9999961853027
 70
   192
  0
VERTEX
  5
3FC
330
3F1
100
AcDbEntity
  8
M-EQPM
 62
   251
420
  4674641
100
AcDbVertex
100
AcDbPolyFaceMeshVertex
 10
-432.0452127456665
 20
-457.832919216156
 30
261.9999961853027
 70
   192
  0
VERTEX
  5
3FD
330
3F1
100
AcDbEntity
  8
M-EQPM
 62
   251
420
  4674641
100
AcDbVertex
100
AcDbPolyFaceMeshVertex
 10
-430.491746520996
 20
-461.5832716941834
 30
261.9999961853027
 70
   192
  0
VERTEX
  5
3FE
330
3F1
100
AcDbEntity
  8
M-EQPM
 62
   251
420
  4674641
100
AcDbVertex
100
AcDbPolyFaceMeshVertex
 10
-429.9619096755981
 20
-465.6079170227051
 30
261.9999961853027
 70
   192
  0
VERTEX
  5
3FF
330
3F1
100
AcDbEntity
  8
M-EQPM
 62
   251
420
  4674641
100
AcDbVertex
100
AcDbPolyFaceMeshVertex
 10
-430.491746520996
 20
-469.6325623512268
 30
261.9999961853027
 70
   192
  0
VERTEX
  5
400
330
3F1
100
AcDbEntity
  8
M-EQPM
 62
   251
420
  4674641
100
AcDbVertex
100
AcDbPolyFaceMeshVertex
 10
-432.0452127456665
 20
-473.3829148292541
 30
261.9999961853027
 70
   192
  0
VERTEX
  5
401
330
3F1
100
AcDbEntity
  8
M-EQPM
 62
   251
420
  4674641
100
AcDbVertex
100
AcDbPolyFaceMeshVertex
 10
-434.5163918495178
 20
-476.6034304618836
 30
261.9999961853027
 70
   192
  0
VERTEX
  5
402
330
3F1
100
AcDbEntity
  8
M-EQPM
 62
   251
420
  4674641
100
AcDbVertex
100
AcDbPolyFaceMeshVertex
 10
-437.7369074821472
 20
-479.0746095657349
 30
261.9999961853027
 70
   192
  0
VERTEX
  5
403
330
3F1
100
AcDbEntity
  8
M-EQPM
 62
   251
420
  4674641
100
AcDbVertex
100
AcDbPolyFaceMeshVertex
 10
-441.4872599601745
 20
-480.6280757904053
 30
261.9999961853027
 70
   192
  0
VERTEX
  5
404
330
3F1
100
AcDbEntity
  8
M-EQPM
 62
   251
420
  4674641
100
AcDbVertex
100
AcDbPolyFaceMeshVertex
 10
-445.5119052886963
 20
-481.1579126358032
 30
261.9999961853027
 70
   192
  0
VERTEX
  5
405
330
3F1
100
AcDbEntity
  8
M-EQPM
 62
   251
420
  4674641
100
AcDbVertex
100
AcDbPolyFaceMeshVertex
 10
-449.536550617218
 20
-480.6280757904053
 30
261.9999961853027
 70
   192
  0
VERTEX
  5
406
330
3F1
100
AcDbEntity
  8
M-EQPM
 62
   251
420
  4674641
100
AcDbVertex
100
AcDbPolyFaceMeshVertex
 10
-453.2869030952453
 20
-479.0746095657349
 30
261.9999961853027
 70
   192
  0
VERTEX
  5
407
330
3F1
100
AcDbEntity
  8
M-EQPM
 62
   251
420
  4674641
100
AcDbVertex
100
AcDbPolyFaceMeshVertex
 10
-456.5074187278748
 20
-476.6034304618836
 30
261.9999961853027
 70
   192
  0
VERTEX
  5
408
330
3F1
100
AcDbEntity
  8
M-EQPM
 62
   251
420
  4674641
100
AcDbVertex
100
AcDbPolyFaceMeshVertex
 10
-458.978597831726
 20
-473.3829148292541
 30
261.9999961853027
 70
   192
  0
VERTEX
  5
409
330
3F1
100
AcDbEntity
  8
M-EQPM
 62
   251
420
  4674641
100
AcDbVertex
100
AcDbPolyFaceMeshVertex
 10
-460.532027721405
 20
-469.6325623512268
 30
261.9999961853027
 70
   192
  0
VERTEX
  5
40A
330
3F1
100
AcDbEntity
  8
M-EQPM
 62
   251
420
  4674641
100
AcDbFaceRecord
 10
0.0
 20
0.0
 30
0.0
 70
   128
 71
     6
 72
     7
 73
    -8
 74
   -10
  0
VERTEX
  5
40B
330
3F1
100
AcDbEntity
  8
M-EQPM
 62
   251
420
  4674641
100
AcDbFaceRecord
 10
0.0
 20
0.0
 30
0.0
 70
   128
 71
   -10
 72
     8
 73
     9
  0
VERTEX
  5
40C
330
3F1
100
AcDbEntity
  8
M-EQPM
 62
   251
420
  4674641
100
AcDbFaceRecord
 10
0.0
 20
0.0
 30
0.0
 70
   128
 71
    10
 72
    11
 73
   -12
  0
VERTEX
  5
40D
330
3F1
100
AcDbEntity
  8
M-EQPM
 62
   251
420
  4674641
100
AcDbFaceRecord
 10
0.0
 20
0.0
 30
0.0
 70
   128
 71
   -18
 72
    -6
 73
   -10
 74
   -12
  0
VERTEX
  5
40E
330
3F1
100
AcDbEntity
  8
M-EQPM
 62
   251
420
  4674641
100
AcDbFaceRecord
 10
0.0
 20
0.0
 30
0.0
 70
   128
 71
     4
 72
     5
 73
    -6
 74
     3
  0
VERTEX
  5
40F
330
3F1
100
AcDbEntity
  8
M-EQPM
 62
   251
420
  4674641
100
AcDbFaceRecord
 10
0.0
 20
0.0
 30
0.0
 70
   128
 71
     1
 72
     2
 73
    -3
 74
    24
  0
VERTEX
  5
410
330
3F1
100
AcDbEntity
  8
M-EQPM
 62
   251
420
  4674641
100
AcDbFaceRecord
 10
0.0
 20
0.0
 30
0.0
 70
   128
 71
   -24
 72
    -3
 73
    -6
 74
   -18
  0
VERTEX
  5
411
330
3F1
100
AcDbEntity
  8
M-EQPM
 62
   251
420
  4674641
100
AcDbFaceRecord
 10
0.0
 20
0.0
 30
0.0
 70
   128
 71
    13
 72
    14
 73
   -15
 74
   -18
  0
VERTEX
  5
412
330
3F1
100
AcDbEntity
  8
M-EQPM
 62
   251
420
  4674641
100
AcDbFaceRecord
 10
0.0
 20
0.0
 30
0.0
 70
   128
 71
    17
 72
   -18
 73
    15
 74
    16
  0
VERTEX
  5
413
330
3F1
100
AcDbEntity
  8
M-EQPM
 62
   251
420
  4674641
100
AcDbFaceRecord
 10
0.0
 20
0.0
 30
0.0
 70
   128
 71
    21
 72
    22
 73
   -23
 74
   -18
  0
VERTEX
  5
414
330
3F1
100
AcDbEntity
  8
M-EQPM
 62
   251
420
  4674641
100
AcDbFaceRecord
 10
0.0
 20
0.0
 30
0.0
 70
   128
 71
    23
 72
   -24
 73
   -18
  0
VERTEX
  5
415
330
3F1
100
AcDbEntity
  8
M-EQPM
 62
   251
420
  4674641
100
AcDbFaceRecord
 10
0.0
 20
0.0
 30
0.0
 70
   128
 71
    19
 72
    20
 73
   -21
 74
    18
  0
VERTEX
  5
416
330
3F1
100
AcDbEntity
  8
M-EQPM
 62
   251
420
  4674641
100
AcDbFaceRecord
 10
0.0
 20
0.0
 30
0.0
 70
   128
 71
   -18
 72
    12
 73
   -13
  0
SEQEND
  5
417
330
3F1
100
AcDbEntity
  8
M-EQPM
 62
   251
420
  4674641
  0
POLYLINE
  5
418
330
70
100
AcDbEntity
  8
M-EQPM
 62
   251
420
  4674641
100
AcDbPolyFaceMesh
 66
     1
 10
0.0
 20
0.0
 30
0.0
 70
    64
 71
    26
 72
    12
1001
REVIT
1002
{
1070
     1
1000
19848
1002
}
1002
{
1070
     4
1000
3251
1002
}
1002
{
1070
     2
1000
-2001140
1002
}
1002
{
1070
     3
1000
11945
1002
}
  0
VERTEX
  5
419
330
418
100
AcDbEntity
  8
M-EQPM
 62
   251
420
  4674641
100
AcDbVertex
100
AcDbPolyFaceMeshVertex
 10
-461.0619009017944
 20
-465.6079170227051
 30
264.9999947547913
 70
   192
  0
VERTEX
  5
41A
330
418
100
AcDbEntity
  8
M-EQPM
 62
   251
420
  4674641
100
AcDbVertex
100
AcDbPolyFaceMeshVertex
 10
-460.532027721405
 20
-461.5832716941834
 30
264.9999947547913
 70
   192
  0
VERTEX
  5
41B
330
418
100
AcDbEntity
  8
M-EQPM
 62
   251
420
  4674641
100
AcDbVertex
100
AcDbPolyFaceMeshVertex
 10
-458.978597831726
 20
-457.832919216156
 30
264.9999947547913
 70
   192
  0
VERTEX
  5
41C
330
418
100
AcDbEntity
  8
M-EQPM
 62
   251
420
  4674641
100
AcDbVertex
100
AcDbPolyFaceMeshVertex
 10
-456.5074187278748
 20
-454.6124035835266
 30
264.9999947547913
 70
   192
  0
VERTEX
  5
41D
330
418
100
AcDbEntity
  8
M-EQPM
 62
   251
420
  4674641
100
AcDbVertex
100
AcDbPolyFaceMeshVertex
 10
-453.2869030952453
 20
-452.1412244796753
 30
264.9999947547913
 70
   192
  0
VERTEX
  5
41E
330
418
100
AcDbEntity
  8
M-EQPM
 62
   251
420
  4674641
100
AcDbVertex
100
AcDbPolyFaceMeshVertex
 10
-449.536550617218
 20
-450.5877582550048
 30
264.9999947547913
 70
   192
  0
VERTEX
  5
41F
330
418
100
AcDbEntity
  8
M-EQPM
 62
   251
420
  4674641
100
AcDbVertex
100
AcDbPolyFaceMeshVertex
 10
-445.5119052886963
 20
-450.0579214096069
 30
264.9999947547913
 70
   192
  0
VERTEX
  5
420
330
418
100
AcDbEntity
  8
M-EQPM
 62
   251
420
  4674641
100
AcDbVertex
100
AcDbPolyFaceMeshVertex
 10
-441.4872599601745
 20
-450.5877582550048
 30
264.9999947547913
 70
   192
  0
VERTEX
  5
421
330
418
100
AcDbEntity
  8
M-EQPM
 62
   251
420
  4674641
100
AcDbVertex
100
AcDbPolyFaceMeshVertex
 10
-437.7369074821472
 20
-452.1412244796753
 30
264.9999947547913
 70
   192
  0
VERTEX
  5
422
330
418
100
AcDbEntity
  8
M-EQPM
 62
   251
420
  4674641
100
AcDbVertex
100
AcDbPolyFaceMeshVertex
 10
-434.5163918495178
 20
-454.6124035835266
 30
264.9999947547913
 70
   192
  0
VERTEX
  5
423
330
418
100
AcDbEntity
  8
M-EQPM
 62
   251
420
  4674641
100
AcDbVertex
100
AcDbPolyFaceMeshVertex
 10
-432.0452127456665
 20
-457.832919216156
 30
264.9999947547913
 70
   192
  0
VERTEX
  5
424
330
418
100
AcDbEntity
  8
M-EQPM
 62
   251
420
  4674641
100
AcDbVertex
100
AcDbPolyFaceMeshVertex
 10
-430.491746520996
 20
-461.5832716941834
 30
264.9999947547913
 70
   192
  0
VERTEX
  5
425
330
418
100
AcDbEntity
  8
M-EQPM
 62
   251
420
  4674641
100
AcDbVertex
100
AcDbPolyFaceMeshVertex
 10
-429.9619096755981
 20
-465.6079170227051
 30
264.9999947547913
 70
   192
  0
VERTEX
  5
426
330
418
100
AcDbEntity
  8
M-EQPM
 62
   251
420
  4674641
100
AcDbVertex
100
AcDbPolyFaceMeshVertex
 10
-429.9619096755981
 20
-465.6079170227051
 30
261.9999961853027
 70
   192
  0
VERTEX
  5
427
330
418
100
AcDbEntity
  8
M-EQPM
 62
   251
420
  4674641
100
AcDbVertex
100
AcDbPolyFaceMeshVertex
 10
-430.491746520996
 20
-461.5832716941834
 30
261.9999961853027
 70
   192
  0
VERTEX
  5
428
330
418
100
AcDbEntity
  8
M-EQPM
 62
   251
420
  4674641
100
AcDbVertex
100
AcDbPolyFaceMeshVertex
 10
-432.0452127456665
 20
-457.832919216156
 30
261.9999961853027
 70
   192
  0
VERTEX
  5
429
330
418
100
AcDbEntity
  8
M-EQPM
 62
   251
420
  4674641
100
AcDbVertex
100
AcDbPolyFaceMeshVertex
 10
-434.5163918495178
 20
-454.6124035835266
 30
261.9999961853027
 70
   192
  0
VERTEX
  5
42A
330
418
100
AcDbEntity
  8
M-EQPM
 62
   251
420
  4674641
100
AcDbVertex
100
AcDbPolyFaceMeshVertex
 10
-437.7369074821472
 20
-452.1412244796753
 30
261.9999961853027
 70
   192
  0
VERTEX
  5
42B
330
418
100
AcDbEntity
  8
M-EQPM
 62
   251
420
  4674641
100
AcDbVertex
100
AcDbPolyFaceMeshVertex
 10
-441.4872599601745
 20
-450.5877582550048
 30
261.9999961853027
 70
   192
  0
VERTEX
  5
42C
330
418
100
AcDbEntity
  8
M-EQPM
 62
   251
420
  4674641
100
AcDbVertex
100
AcDbPolyFaceMeshVertex
 10
-445.5119052886963
 20
-450.0579214096069
 30
261.9999961853027
 70
   192
  0
VERTEX
  5
42D
330
418
100
AcDbEntity
  8
M-EQPM
 62
   251
420
  4674641
100
AcDbVertex
100
AcDbPolyFaceMeshVertex
 10
-449.536550617218
 20
-450.5877582550048
 30
261.9999961853027
 70
   192
  0
VERTEX
  5
42E
330
418
100
AcDbEntity
  8
M-EQPM
 62
   251
420
  4674641
100
AcDbVertex
100
AcDbPolyFaceMeshVertex
 10
-453.2869030952453
 20
-452.1412244796753
 30
261.9999961853027
 70
   192
  0
VERTEX
  5
42F
330
418
100
AcDbEntity
  8
M-EQPM
 62
   251
420
  4674641
100
AcDbVertex
100
AcDbPolyFaceMeshVertex
 10
-456.5074187278748
 20
-454.6124035835266
 30
261.9999961853027
 70
   192
  0
VERTEX
  5
430
330
418
100
AcDbEntity
  8
M-EQPM
 62
   251
420
  4674641
100
AcDbVertex
100
AcDbPolyFaceMeshVertex
 10
-458.978597831726
 20
-457.832919216156
 30
261.9999961853027
 70
   192
  0
VERTEX
  5
431
330
418
100
AcDbEntity
  8
M-EQPM
 62
   251
420
  4674641
100
AcDbVertex
100
AcDbPolyFaceMeshVertex
 10
-460.532027721405
 20
-461.5832716941834
 30
261.9999961853027
 70
   192
  0
VERTEX
  5
432
330
418
100
AcDbEntity
  8
M-EQPM
 62
   251
420
  4674641
100
AcDbVertex
100
AcDbPolyFaceMeshVertex
 10
-461.0619009017944
 20
-465.6079170227051
 30
261.9999961853027
 70
   192
  0
VERTEX
  5
433
330
418
100
AcDbEntity
  8
M-EQPM
 62
   251
420
  4674641
100
AcDbFaceRecord
 10
0.0
 20
0.0
 30
0.0
 70
   128
 71
    14
 72
   -15
 73
    12
 74
    13
  0
VERTEX
  5
434
330
418
100
AcDbEntity
  8
M-EQPM
 62
   251
420
  4674641
100
AcDbFaceRecord
 10
0.0
 20
0.0
 30
0.0
 70
   128
 71
    15
 72
   -16
 73
    11
 74
   -12
  0
VERTEX
  5
435
330
418
100
AcDbEntity
  8
M-EQPM
 62
   251
420
  4674641
100
AcDbFaceRecord
 10
0.0
 20
0.0
 30
0.0
 70
   128
 71
    17
 72
   -18
 73
     9
 74
   -10
  0
VERTEX
  5
436
330
418
100
AcDbEntity
  8
M-EQPM
 62
   251
420
  4674641
100
AcDbFaceRecord
 10
0.0
 20
0.0
 30
0.0
 70
   128
 71
    16
 72
   -17
 73
    10
 74
   -11
  0
VERTEX
  5
437
330
418
100
AcDbEntity
  8
M-EQPM
 62
   251
420
  4674641
100
AcDbFaceRecord
 10
0.0
 20
0.0
 30
0.0
 70
   128
 71
    18
 72
   -19
 73
     8
 74
    -9
  0
VERTEX
  5
438
330
418
100
AcDbEntity
  8
M-EQPM
 62
   251
420
  4674641
100
AcDbFaceRecord
 10
0.0
 20
0.0
 30
0.0
 70
   128
 71
     7
 72
    -8
 73
    19
 74
   -20
  0
VERTEX
  5
439
330
418
100
AcDbEntity
  8
M-EQPM
 62
   251
420
  4674641
100
AcDbFaceRecord
 10
0.0
 20
0.0
 30
0.0
 70
   128
 71
    20
 72
   -21
 73
     6
 74
    -7
  0
VERTEX
  5
43A
330
418
100
AcDbEntity
  8
M-EQPM
 62
   251
420
  4674641
100
AcDbFaceRecord
 10
0.0
 20
0.0
 30
0.0
 70
   128
 71
    21
 72
   -22
 73
     5
 74
    -6
  0
VERTEX
  5
43B
330
418
100
AcDbEntity
  8
M-EQPM
 62
   251
420
  4674641
100
AcDbFaceRecord
 10
0.0
 20
0.0
 30
0.0
 70
   128
 71
    23
 72
   -24
 73
     3
 74
    -4
  0
VERTEX
  5
43C
330
418
100
AcDbEntity
  8
M-EQPM
 62
   251
420
  4674641
100
AcDbFaceRecord
 10
0.0
 20
0.0
 30
0.0
 70
   128
 71
    22
 72
   -23
 73
     4
 74
    -5
  0
VERTEX
  5
43D
330
418
100
AcDbEntity
  8
M-EQPM
 62
   251
420
  4674641
100
AcDbFaceRecord
 10
0.0
 20
0.0
 30
0.0
 70
   128
 71
    24
 72
   -25
 73
     2
 74
    -3
  0
VERTEX
  5
43E
330
418
100
AcDbEntity
  8
M-EQPM
 62
   251
420
  4674641
100
AcDbFaceRecord
 10
0.0
 20
0.0
 30
0.0
 70
   128
 71
     1
 72
    -2
 73
    25
 74
    26
  0
SEQEND
  5
43F
330
418
100
AcDbEntity
  8
M-EQPM
 62
   251
420
  4674641
  0
POLYLINE
  5
440
330
70
100
AcDbEntity
  8
M-EQPM
 62
   251
420
  4674641
100
AcDbPolyFaceMesh
 66
     1
 10
0.0
 20
0.0
 30
0.0
 70
    64
 71
    26
 72
    12
1001
REVIT
1002
{
1070
     1
1000
19848
1002
}
1002
{
1070
     4
1000
3251
1002
}
1002
{
1070
     2
1000
-2001140
1002
}
1002
{
1070
     3
1000
11945
1002
}
  0
VERTEX
  5
441
330
440
100
AcDbEntity
  8
M-EQPM
 62
   251
420
  4674641
100
AcDbVertex
100
AcDbPolyFaceMeshVertex
 10
-429.9619096755981
 20
-465.6079170227051
 30
264.9999947547913
 70
   192
  0
VERTEX
  5
442
330
440
100
AcDbEntity
  8
M-EQPM
 62
   251
420
  4674641
100
AcDbVertex
100
AcDbPolyFaceMeshVertex
 10
-430.491746520996
 20
-469.6325623512268
 30
264.9999947547913
 70
   192
  0
VERTEX
  5
443
330
440
100
AcDbEntity
  8
M-EQPM
 62
   251
420
  4674641
100
AcDbVertex
100
AcDbPolyFaceMeshVertex
 10
-432.0452127456665
 20
-473.3829148292541
 30
264.9999947547913
 70
   192
  0
VERTEX
  5
444
330
440
100
AcDbEntity
  8
M-EQPM
 62
   251
420
  4674641
100
AcDbVertex
100
AcDbPolyFaceMeshVertex
 10
-434.5163918495178
 20
-476.6034304618836
 30
264.9999947547913
 70
   192
  0
VERTEX
  5
445
330
440
100
AcDbEntity
  8
M-EQPM
 62
   251
420
  4674641
100
AcDbVertex
100
AcDbPolyFaceMeshVertex
 10
-437.7369074821472
 20
-479.0746095657349
 30
264.9999947547913
 70
   192
  0
VERTEX
  5
446
330
440
100
AcDbEntity
  8
M-EQPM
 62
   251
420
  4674641
100
AcDbVertex
100
AcDbPolyFaceMeshVertex
 10
-441.4872599601745
 20
-480.6280757904053
 30
264.9999947547913
 70
   192
  0
VERTEX
  5
447
330
440
100
AcDbEntity
  8
M-EQPM
 62
   251
420
  4674641
100
AcDbVertex
100
AcDbPolyFaceMeshVertex
 10
-445.5119052886963
 20
-481.1579126358032
 30
264.9999947547913
 70
   192
  0
VERTEX
  5
448
330
440
100
AcDbEntity
  8
M-EQPM
 62
   251
420
  4674641
100
AcDbVertex
100
AcDbPolyFaceMeshVertex
 10
-449.536550617218
 20
-480.6280757904053
 30
264.9999947547913
 70
   192
  0
VERTEX
  5
449
330
440
100
AcDbEntity
  8
M-EQPM
 62
   251
420
  4674641
100
AcDbVertex
100
AcDbPolyFaceMeshVertex
 10
-453.2869030952453
 20
-479.0746095657349
 30
264.9999947547913
 70
   192
  0
VERTEX
  5
44A
330
440
100
AcDbEntity
  8
M-EQPM
 62
   251
420
  4674641
100
AcDbVertex
100
AcDbPolyFaceMeshVertex
 10
-456.5074187278748
 20
-476.6034304618836
 30
264.9999947547913
 70
   192
  0
VERTEX
  5
44B
330
440
100
AcDbEntity
  8
M-EQPM
 62
   251
420
  4674641
100
AcDbVertex
100
AcDbPolyFaceMeshVertex
 10
-458.978597831726
 20
-473.3829148292541
 30
264.9999947547913
 70
   192
  0
VERTEX
  5
44C
330
440
100
AcDbEntity
  8
M-EQPM
 62
   251
420
  4674641
100
AcDbVertex
100
AcDbPolyFaceMeshVertex
 10
-460.532027721405
 20
-469.6325623512268
 30
264.9999947547913
 70
   192
  0
VERTEX
  5
44D
330
440
100
AcDbEntity
  8
M-EQPM
 62
   251
420
  4674641
100
AcDbVertex
100
AcDbPolyFaceMeshVertex
 10
-461.0619009017944
 20
-465.6079170227051
 30
264.9999947547913
 70
   192
  0
VERTEX
  5
44E
330
440
100
AcDbEntity
  8
M-EQPM
 62
   251
420
  4674641
100
AcDbVertex
100
AcDbPolyFaceMeshVertex
 10
-461.0619009017944
 20
-465.6079170227051
 30
261.9999961853027
 70
   192
  0
VERTEX
  5
44F
330
440
100
AcDbEntity
  8
M-EQPM
 62
   251
420
  4674641
100
AcDbVertex
100
AcDbPolyFaceMeshVertex
 10
-460.532027721405
 20
-469.6325623512268
 30
261.9999961853027
 70
   192
  0
VERTEX
  5
450
330
440
100
AcDbEntity
  8
M-EQPM
 62
   251
420
  4674641
100
AcDbVertex
100
AcDbPolyFaceMeshVertex
 10
-458.978597831726
 20
-473.3829148292541
 30
261.9999961853027
 70
   192
  0
VERTEX
  5
451
330
440
100
AcDbEntity
  8
M-EQPM
 62
   251
420
  4674641
100
AcDbVertex
100
AcDbPolyFaceMeshVertex
 10
-456.5074187278748
 20
-476.6034304618836
 30
261.9999961853027
 70
   192
  0
VERTEX
  5
452
330
440
100
AcDbEntity
  8
M-EQPM
 62
   251
420
  4674641
100
AcDbVertex
100
AcDbPolyFaceMeshVertex
 10
-453.2869030952453
 20
-479.0746095657349
 30
261.9999961853027
 70
   192
  0
VERTEX
  5
453
330
440
100
AcDbEntity
  8
M-EQPM
 62
   251
420
  4674641
100
AcDbVertex
100
AcDbPolyFaceMeshVertex
 10
-449.536550617218
 20
-480.6280757904053
 30
261.9999961853027
 70
   192
  0
VERTEX
  5
454
330
440
100
AcDbEntity
  8
M-EQPM
 62
   251
420
  4674641
100
AcDbVertex
100
AcDbPolyFaceMeshVertex
 10
-445.5119052886963
 20
-481.1579126358032
 30
261.9999961853027
 70
   192
  0
VERTEX
  5
455
330
440
100
AcDbEntity
  8
M-EQPM
 62
   251
420
  4674641
100
AcDbVertex
100
AcDbPolyFaceMeshVertex
 10
-441.4872599601745
 20
-480.6280757904053
 30
261.9999961853027
 70
   192
  0
VERTEX
  5
456
330
440
100
AcDbEntity
  8
M-EQPM
 62
   251
420
  4674641
100
AcDbVertex
100
AcDbPolyFaceMeshVertex
 10
-437.7369074821472
 20
-479.0746095657349
 30
261.9999961853027
 70
   192
  0
VERTEX
  5
457
330
440
100
AcDbEntity
  8
M-EQPM
 62
   251
420
  4674641
100
AcDbVertex
100
AcDbPolyFaceMeshVertex
 10
-434.5163918495178
 20
-476.6034304618836
 30
261.9999961853027
 70
   192
  0
VERTEX
  5
458
330
440
100
AcDbEntity
  8
M-EQPM
 62
   251
420
  4674641
100
AcDbVertex
100
AcDbPolyFaceMeshVertex
 10
-432.0452127456665
 20
-473.3829148292541
 30
261.9999961853027
 70
   192
  0
VERTEX
  5
459
330
440
100
AcDbEntity
  8
M-EQPM
 62
   251
420
  4674641
100
AcDbVertex
100
AcDbPolyFaceMeshVertex
 10
-430.491746520996
 20
-469.6325623512268
 30
261.9999961853027
 70
   192
  0
VERTEX
  5
45A
330
440
100
AcDbEntity
  8
M-EQPM
 62
   251
420
  4674641
100
AcDbVertex
100
AcDbPolyFaceMeshVertex
 10
-429.9619096755981
 20
-465.6079170227051
 30
261.9999961853027
 70
   192
  0
VERTEX
  5
45B
330
440
100
AcDbEntity
  8
M-EQPM
 62
   251
420
  4674641
100
AcDbFaceRecord
 10
0.0
 20
0.0
 30
0.0
 70
   128
 71
    14
 72
   -15
 73
    12
 74
    13
  0
VERTEX
  5
45C
330
440
100
AcDbEntity
  8
M-EQPM
 62
   251
420
  4674641
100
AcDbFaceRecord
 10
0.0
 20
0.0
 30
0.0
 70
   128
 71
    15
 72
   -16
 73
    11
 74
   -12
  0
VERTEX
  5
45D
330
440
100
AcDbEntity
  8
M-EQPM
 62
   251
420
  4674641
100
AcDbFaceRecord
 10
0.0
 20
0.0
 30
0.0
 70
   128
 71
    17
 72
   -18
 73
     9
 74
   -10
  0
VERTEX
  5
45E
330
440
100
AcDbEntity
  8
M-EQPM
 62
   251
420
  4674641
100
AcDbFaceRecord
 10
0.0
 20
0.0
 30
0.0
 70
   128
 71
    16
 72
   -17
 73
    10
 74
   -11
  0
VERTEX
  5
45F
330
440
100
AcDbEntity
  8
M-EQPM
 62
   251
420
  4674641
100
AcDbFaceRecord
 10
0.0
 20
0.0
 30
0.0
 70
   128
 71
    18
 72
   -19
 73
     8
 74
    -9
  0
VERTEX
  5
460
330
440
100
AcDbEntity
  8
M-EQPM
 62
   251
420
  4674641
100
AcDbFaceRecord
 10
0.0
 20
0.0
 30
0.0
 70
   128
 71
     7
 72
    -8
 73
    19
 74
   -20
  0
VERTEX
  5
461
330
440
100
AcDbEntity
  8
M-EQPM
 62
   251
420
  4674641
100
AcDbFaceRecord
 10
0.0
 20
0.0
 30
0.0
 70
   128
 71
    20
 72
   -21
 73
     6
 74
    -7
  0
VERTEX
  5
462
330
440
100
AcDbEntity
  8
M-EQPM
 62
   251
420
  4674641
100
AcDbFaceRecord
 10
0.0
 20
0.0
 30
0.0
 70
   128
 71
    21
 72
   -22
 73
     5
 74
    -6
  0
VERTEX
  5
463
330
440
100
AcDbEntity
  8
M-EQPM
 62
   251
420
  4674641
100
AcDbFaceRecord
 10
0.0
 20
0.0
 30
0.0
 70
   128
 71
    23
 72
   -24
 73
     3
 74
    -4
  0
VERTEX
  5
464
330
440
100
AcDbEntity
  8
M-EQPM
 62
   251
420
  4674641
100
AcDbFaceRecord
 10
0.0
 20
0.0
 30
0.0
 70
   128
 71
    22
 72
   -23
 73
     4
 74
    -5
  0
VERTEX
  5
465
330
440
100
AcDbEntity
  8
M-EQPM
 62
   251
420
  4674641
100
AcDbFaceRecord
 10
0.0
 20
0.0
 30
0.0
 70
   128
 71
    24
 72
   -25
 73
     2
 74
    -3
  0
VERTEX
  5
466
330
440
100
AcDbEntity
  8
M-EQPM
 62
   251
420
  4674641
100
AcDbFaceRecord
 10
0.0
 20
0.0
 30
0.0
 70
   128
 71
     1
 72
    -2
 73
    25
 74
    26
  0
SEQEND
  5
467
330
440
100
AcDbEntity
  8
M-EQPM
 62
   251
420
  4674641
  0
POLYLINE
  5
468
330
70
100
AcDbEntity
  8
M-EQPM
 62
   251
420
  4674641
100
AcDbPolyFaceMesh
 66
     1
 10
0.0
 20
0.0
 30
0.0
 70
    64
 71
    24
 72
    13
1001
REVIT
1002
{
1070
     1
1000
30458
1002
}
1002
{
1070
     4
1000
3251
1002
}
1002
{
1070
     2
1000
-2001140
1002
}
1002
{
1070
     3
1000
11945
1002
}
  0
VERTEX
  5
469
330
468
100
AcDbEntity
  8
M-EQPM
 62
   251
420
  4674641
100
AcDbVertex
100
AcDbPolyFaceMeshVertex
 10
625.0000047683715
 20
-306.5000052452087
 30
143.0000014543533
 70
   192
  0
VERTEX
  5
46A
330
468
100
AcDbEntity
  8
M-EQPM
 62
   251
420
  4674641
100
AcDbVertex
100
AcDbPolyFaceMeshVertex
 10
625.0000047683715
 20
-308.6296354293823
 30
159.1761852264404
 70
   192
  0
VERTEX
  5
46B
330
468
100
AcDbEntity
  8
M-EQPM
 62
   251
420
  4674641
100
AcDbVertex
100
AcDbPolyFaceMeshVertex
 10
625.0000047683715
 20
-314.8734040260315
 30
174.249992609024
 70
   192
  0
VERTEX
  5
46C
330
468
100
AcDbEntity
  8
M-EQPM
 62
   251
420
  4674641
100
AcDbVertex
100
AcDbPolyFaceMeshVertex
 10
625.0000047683715
 20
-324.8058282852173
 30
187.1941698074341
 70
   192
  0
VERTEX
  5
46D
330
468
100
AcDbEntity
  8
M-EQPM
 62
   251
420
  4674641
100
AcDbVertex
100
AcDbPolyFaceMeshVertex
 10
625.0000047683715
 20
-337.7499873161316
 30
197.1265940666198
 70
   192
  0
VERTEX
  5
46E
330
468
100
AcDbEntity
  8
M-EQPM
 62
   251
420
  4674641
100
AcDbVertex
100
AcDbPolyFaceMeshVertex
 10
625.0000047683715
 20
-352.823812866211
 30
203.3703626632691
 70
   192
  0
VERTEX
  5
46F
330
468
100
AcDbEntity
  8
M-EQPM
 62
   251
420
  4674641
100
AcDbVertex
100
AcDbPolyFaceMeshVertex
 10
625.0000047683715
 20
-369.0000057220459
 30
205.4999928474426
 70
   192
  0
VERTEX
  5
470
330
468
100
AcDbEntity
  8
M-EQPM
 62
   251
420
  4674641
100
AcDbVertex
100
AcDbPolyFaceMeshVertex
 10
625.0000047683715
 20
-385.1761985778809
 30
203.3703626632691
 70
   192
  0
VERTEX
  5
471
330
468
100
AcDbEntity
  8
M-EQPM
 62
   251
420
  4674641
100
AcDbVertex
100
AcDbPolyFaceMeshVertex
 10
625.0000047683715
 20
-400.2499877929687
 30
197.1265940666198
 70
   192
  0
VERTEX
  5
472
330
468
100
AcDbEntity
  8
M-EQPM
 62
   251
420
  4674641
100
AcDbVertex
100
AcDbPolyFaceMeshVertex
 10
625.0000047683715
 20
-413.1941831588745
 30
187.1941698074341
 70
   192
  0
VERTEX
  5
473
330
468
100
AcDbEntity
  8
M-EQPM
 62
   251
420
  4674641
100
AcDbVertex
100
AcDbPolyFaceMeshVertex
 10
625.0000047683715
 20
-423.1265710830689
 30
174.249992609024
 70
   192
  0
VERTEX
  5
474
330
468
100
AcDbEntity
  8
M-EQPM
 62
   251
420
  4674641
100
AcDbVertex
100
AcDbPolyFaceMeshVertex
 10
625.0000047683715
 20
-429.3703760147095
 30
159.1761852264404
 70
   192
  0
VERTEX
  5
475
330
468
100
AcDbEntity
  8
M-EQPM
 62
   251
420
  4674641
100
AcDbVertex
100
AcDbPolyFaceMeshVertex
 10
625.0000047683715
 20
-431.500006198883
 30
143.0000014543533
 70
   192
  0
VERTEX
  5
476
330
468
100
AcDbEntity
  8
M-EQPM
 62
   251
420
  4674641
100
AcDbVertex
100
AcDbPolyFaceMeshVertex
 10
625.0000047683715
 20
-429.3703760147095
 30
126.8238085985184
 70
   192
  0
VERTEX
  5
477
330
468
100
AcDbEntity
  8
M-EQPM
 62
   251
420
  4674641
100
AcDbVertex
100
AcDbPolyFaceMeshVertex
 10
625.0000047683715
 20
-423.1265710830689
 30
111.7500012159347
 70
   192
  0
VERTEX
  5
478
330
468
100
AcDbEntity
  8
M-EQPM
 62
   251
420
  4674641
100
AcDbVertex
100
AcDbPolyFaceMeshVertex
 10
625.0000047683715
 20
-413.1941831588745
 30
98.80582401752473
 70
   192
  0
VERTEX
  5
479
330
468
100
AcDbEntity
  8
M-EQPM
 62
   251
420
  4674641
100
AcDbVertex
100
AcDbPolyFaceMeshVertex
 10
625.0000047683715
 20
-400.2499877929687
 30
88.87340884208679
 70
   192
  0
VERTEX
  5
47A
330
468
100
AcDbEntity
  8
M-EQPM
 62
   251
420
  4674641
100
AcDbVertex
100
AcDbPolyFaceMeshVertex
 10
625.0000047683715
 20
-385.1761985778809
 30
82.62964024543762
 70
   192
  0
VERTEX
  5
47B
330
468
100
AcDbEntity
  8
M-EQPM
 62
   251
420
  4674641
100
AcDbVertex
100
AcDbPolyFaceMeshVertex
 10
625.0000047683715
 20
-369.0000057220459
 30
80.50000097751619
 70
   192
  0
VERTEX
  5
47C
330
468
100
AcDbEntity
  8
M-EQPM
 62
   251
420
  4674641
100
AcDbVertex
100
AcDbPolyFaceMeshVertex
 10
625.0000047683715
 20
-352.823812866211
 30
82.62964024543762
 70
   192
  0
VERTEX
  5
47D
330
468
100
AcDbEntity
  8
M-EQPM
 62
   251
420
  4674641
100
AcDbVertex
100
AcDbPolyFaceMeshVertex
 10
625.0000047683715
 20
-337.7499873161316
 30
88.87340884208679
 70
   192
  0
VERTEX
  5
47E
330
468
100
AcDbEntity
  8
M-EQPM
 62
   251
420
  4674641
100
AcDbVertex
100
AcDbPolyFaceMeshVertex
 10
625.0000047683715
 20
-324.8058282852173
 30
98.80582401752473
 70
   192
  0
VERTEX
  5
47F
330
468
100
AcDbEntity
  8
M-EQPM
 62
   251
420
  4674641
100
AcDbVertex
100
AcDbPolyFaceMeshVertex
 10
625.0000047683715
 20
-314.8734040260315
 30
111.7500012159347
 70
   192
  0
VERTEX
  5
480
330
468
100
AcDbEntity
  8
M-EQPM
 62
   251
420
  4674641
100
AcDbVertex
100
AcDbPolyFaceMeshVertex
 10
625.0000047683715
 20
-308.6296354293823
 30
126.8238085985184
 70
   192
  0
VERTEX
  5
481
330
468
100
AcDbEntity
  8
M-EQPM
 62
   251
420
  4674641
100
AcDbFaceRecord
 10
0.0
 20
0.0
 30
0.0
 70
   128
 71
     8
 72
     9
 73
   -10
 74
     7
  0
VERTEX
  5
482
330
468
100
AcDbEntity
  8
M-EQPM
 62
   251
420
  4674641
100
AcDbFaceRecord
 10
0.0
 20
0.0
 30
0.0
 70
   128
 71
    11
 72
    12
 73
    13
 74
   -14
  0
VERTEX
  5
483
330
468
100
AcDbEntity
  8
M-EQPM
 62
   251
420
  4674641
100
AcDbFaceRecord
 10
0.0
 20
0.0
 30
0.0
 70
   128
 71
    -7
 72
    10
 73
   -11
 74
   -24
  0
VERTEX
  5
484
330
468
100
AcDbEntity
  8
M-EQPM
 62
   251
420
  4674641
100
AcDbFaceRecord
 10
0.0
 20
0.0
 30
0.0
 70
   128
 71
     5
 72
     6
 73
    -7
 74
     4
  0
VERTEX
  5
485
330
468
100
AcDbEntity
  8
M-EQPM
 62
   251
420
  4674641
100
AcDbFaceRecord
 10
0.0
 20
0.0
 30
0.0
 70
   128
 71
     2
 72
     3
 73
    -4
 74
   -24
  0
VERTEX
  5
486
330
468
100
AcDbEntity
  8
M-EQPM
 62
   251
420
  4674641
100
AcDbFaceRecord
 10
0.0
 20
0.0
 30
0.0
 70
   128
 71
   -24
 72
    -4
 73
    -7
  0
VERTEX
  5
487
330
468
100
AcDbEntity
  8
M-EQPM
 62
   251
420
  4674641
100
AcDbFaceRecord
 10
0.0
 20
0.0
 30
0.0
 70
   128
 71
   -24
 72
   -11
 73
   -15
 74
   -21
  0
VERTEX
  5
488
330
468
100
AcDbEntity
  8
M-EQPM
 62
   251
420
  4674641
100
AcDbFaceRecord
 10
0.0
 20
0.0
 30
0.0
 70
   128
 71
    15
 72
   -16
 73
    18
 74
   -19
  0
VERTEX
  5
489
330
468
100
AcDbEntity
  8
M-EQPM
 62
   251
420
  4674641
100
AcDbFaceRecord
 10
0.0
 20
0.0
 30
0.0
 70
   128
 71
   -18
 72
    16
 73
    17
  0
VERTEX
  5
48A
330
468
100
AcDbEntity
  8
M-EQPM
 62
   251
420
  4674641
100
AcDbFaceRecord
 10
0.0
 20
0.0
 30
0.0
 70
   128
 71
   -21
 72
   -15
 73
    19
 74
    20
  0
VERTEX
  5
48B
330
468
100
AcDbEntity
  8
M-EQPM
 62
   251
420
  4674641
100
AcDbFaceRecord
 10
0.0
 20
0.0
 30
0.0
 70
   128
 71
    22
 72
    23
 73
   -24
 74
    21
  0
VERTEX
  5
48C
330
468
100
AcDbEntity
  8
M-EQPM
 62
   251
420
  4674641
100
AcDbFaceRecord
 10
0.0
 20
0.0
 30
0.0
 70
   128
 71
     1
 72
    -2
 73
    24
  0
VERTEX
  5
48D
330
468
100
AcDbEntity
  8
M-EQPM
 62
   251
420
  4674641
100
AcDbFaceRecord
 10
0.0
 20
0.0
 30
0.0
 70
   128
 71
   -11
 72
    14
 73
   -15
  0
SEQEND
  5
48E
330
468
100
AcDbEntity
  8
M-EQPM
 62
   251
420
  4674641
  0
POLYLINE
  5
48F
330
70
100
AcDbEntity
  8
M-EQPM
 62
   251
420
  4674641
100
AcDbPolyFaceMesh
 66
     1
 10
0.0
 20
0.0
 30
0.0
 70
    64
 71
    24
 72
    13
1001
REVIT
1002
{
1070
     1
1000
30458
1002
}
1002
{
1070
     4
1000
3251
1002
}
1002
{
1070
     2
1000
-2001140
1002
}
1002
{
1070
     3
1000
11945
1002
}
  0
VERTEX
  5
490
330
48F
100
AcDbEntity
  8
M-EQPM
 62
   251
420
  4674641
100
AcDbVertex
100
AcDbPolyFaceMeshVertex
 10
585.0000117301942
 20
-306.5000052452087
 30
143.0000014543533
 70
   192
  0
VERTEX
  5
491
330
48F
100
AcDbEntity
  8
M-EQPM
 62
   251
420
  4674641
100
AcDbVertex
100
AcDbPolyFaceMeshVertex
 10
585.0000117301942
 20
-308.6296354293823
 30
126.8238085985184
 70
   192
  0
VERTEX
  5
492
330
48F
100
AcDbEntity
  8
M-EQPM
 62
   251
420
  4674641
100
AcDbVertex
100
AcDbPolyFaceMeshVertex
 10
585.0000117301942
 20
-314.8734040260315
 30
111.7500012159347
 70
   192
  0
VERTEX
  5
493
330
48F
100
AcDbEntity
  8
M-EQPM
 62
   251
420
  4674641
100
AcDbVertex
100
AcDbPolyFaceMeshVertex
 10
585.0000117301942
 20
-324.8058282852173
 30
98.80582401752473
 70
   192
  0
VERTEX
  5
494
330
48F
100
AcDbEntity
  8
M-EQPM
 62
   251
420
  4674641
100
AcDbVertex
100
AcDbPolyFaceMeshVertex
 10
585.0000117301942
 20
-337.7499873161316
 30
88.87340884208679
 70
   192
  0
VERTEX
  5
495
330
48F
100
AcDbEntity
  8
M-EQPM
 62
   251
420
  4674641
100
AcDbVertex
100
AcDbPolyFaceMeshVertex
 10
585.0000117301942
 20
-352.823812866211
 30
82.62964024543762
 70
   192
  0
VERTEX
  5
496
330
48F
100
AcDbEntity
  8
M-EQPM
 62
   251
420
  4674641
100
AcDbVertex
100
AcDbPolyFaceMeshVertex
 10
585.0000117301942
 20
-369.0000057220459
 30
80.50000097751619
 70
   192
  0
VERTEX
  5
497
330
48F
100
AcDbEntity
  8
M-EQPM
 62
   251
420
  4674641
100
AcDbVertex
100
AcDbPolyFaceMeshVertex
 10
585.0000117301942
 20
-385.1761985778809
 30
82.62964024543762
 70
   192
  0
VERTEX
  5
498
330
48F
100
AcDbEntity
  8
M-EQPM
 62
   251
420
  4674641
100
AcDbVertex
100
AcDbPolyFaceMeshVertex
 10
585.0000117301942
 20
-400.2499877929687
 30
88.87340884208679
 70
   192
  0
VERTEX
  5
499
330
48F
100
AcDbEntity
  8
M-EQPM
 62
   251
420
  4674641
100
AcDbVertex
100
AcDbPolyFaceMeshVertex
 10
585.0000117301942
 20
-413.1941831588745
 30
98.80582401752473
 70
   192
  0
VERTEX
  5
49A
330
48F
100
AcDbEntity
  8
M-EQPM
 62
   251
420
  4674641
100
AcDbVertex
100
AcDbPolyFaceMeshVertex
 10
585.0000117301942
 20
-423.1265710830689
 30
111.7500012159347
 70
   192
  0
VERTEX
  5
49B
330
48F
100
AcDbEntity
  8
M-EQPM
 62
   251
420
  4674641
100
AcDbVertex
100
AcDbPolyFaceMeshVertex
 10
585.0000117301942
 20
-429.3703760147095
 30
126.8238085985184
 70
   192
  0
VERTEX
  5
49C
330
48F
100
AcDbEntity
  8
M-EQPM
 62
   251
420
  4674641
100
AcDbVertex
100
AcDbPolyFaceMeshVertex
 10
585.0000117301942
 20
-431.500006198883
 30
143.0000014543533
 70
   192
  0
VERTEX
  5
49D
330
48F
100
AcDbEntity
  8
M-EQPM
 62
   251
420
  4674641
100
AcDbVertex
100
AcDbPolyFaceMeshVertex
 10
585.0000117301942
 20
-429.3703760147095
 30
159.1761852264404
 70
   192
  0
VERTEX
  5
49E
330
48F
100
AcDbEntity
  8
M-EQPM
 62
   251
420
  4674641
100
AcDbVertex
100
AcDbPolyFaceMeshVertex
 10
585.0000117301942
 20
-423.1265710830689
 30
174.249992609024
 70
   192
  0
VERTEX
  5
49F
330
48F
100
AcDbEntity
  8
M-EQPM
 62
   251
420
  4674641
100
AcDbVertex
100
AcDbPolyFaceMeshVertex
 10
585.0000117301942
 20
-413.1941831588745
 30
187.1941698074341
 70
   192
  0
VERTEX
  5
4A0
330
48F
100
AcDbEntity
  8
M-EQPM
 62
   251
420
  4674641
100
AcDbVertex
100
AcDbPolyFaceMeshVertex
 10
585.0000117301942
 20
-400.2499877929687
 30
197.1265940666198
 70
   192
  0
VERTEX
  5
4A1
330
48F
100
AcDbEntity
  8
M-EQPM
 62
   251
420
  4674641
100
AcDbVertex
100
AcDbPolyFaceMeshVertex
 10
585.0000117301942
 20
-385.1761985778809
 30
203.3703626632691
 70
   192
  0
VERTEX
  5
4A2
330
48F
100
AcDbEntity
  8
M-EQPM
 62
   251
420
  4674641
100
AcDbVertex
100
AcDbPolyFaceMeshVertex
 10
585.0000117301942
 20
-369.0000057220459
 30
205.4999928474426
 70
   192
  0
VERTEX
  5
4A3
330
48F
100
AcDbEntity
  8
M-EQPM
 62
   251
420
  4674641
100
AcDbVertex
100
AcDbPolyFaceMeshVertex
 10
585.0000117301942
 20
-352.823812866211
 30
203.3703626632691
 70
   192
  0
VERTEX
  5
4A4
330
48F
100
AcDbEntity
  8
M-EQPM
 62
   251
420
  4674641
100
AcDbVertex
100
AcDbPolyFaceMeshVertex
 10
585.0000117301942
 20
-337.7499873161316
 30
197.1265940666198
 70
   192
  0
VERTEX
  5
4A5
330
48F
100
AcDbEntity
  8
M-EQPM
 62
   251
420
  4674641
100
AcDbVertex
100
AcDbPolyFaceMeshVertex
 10
585.0000117301942
 20
-324.8058282852173
 30
187.1941698074341
 70
   192
  0
VERTEX
  5
4A6
330
48F
100
AcDbEntity
  8
M-EQPM
 62
   251
420
  4674641
100
AcDbVertex
100
AcDbPolyFaceMeshVertex
 10
585.0000117301942
 20
-314.8734040260315
 30
174.249992609024
 70
   192
  0
VERTEX
  5
4A7
330
48F
100
AcDbEntity
  8
M-EQPM
 62
   251
420
  4674641
100
AcDbVertex
100
AcDbPolyFaceMeshVertex
 10
585.0000117301942
 20
-308.6296354293823
 30
159.1761852264404
 70
   192
  0
VERTEX
  5
4A8
330
48F
100
AcDbEntity
  8
M-EQPM
 62
   251
420
  4674641
100
AcDbFaceRecord
 10
0.0
 20
0.0
 30
0.0
 70
   128
 71
     7
 72
    -8
 73
   -11
 74
    -5
  0
VERTEX
  5
4A9
330
48F
100
AcDbEntity
  8
M-EQPM
 62
   251
420
  4674641
100
AcDbFaceRecord
 10
0.0
 20
0.0
 30
0.0
 70
   128
 71
     8
 72
     9
 73
    10
 74
   -11
  0
VERTEX
  5
4AA
330
48F
100
AcDbEntity
  8
M-EQPM
 62
   251
420
  4674641
100
AcDbFaceRecord
 10
0.0
 20
0.0
 30
0.0
 70
   128
 71
   -11
 72
   -19
 73
    -2
 74
    -5
  0
VERTEX
  5
4AB
330
48F
100
AcDbEntity
  8
M-EQPM
 62
   251
420
  4674641
100
AcDbFaceRecord
 10
0.0
 20
0.0
 30
0.0
 70
   128
 71
     4
 72
    -5
 73
     2
 74
     3
  0
VERTEX
  5
4AC
330
48F
100
AcDbEntity
  8
M-EQPM
 62
   251
420
  4674641
100
AcDbFaceRecord
 10
0.0
 20
0.0
 30
0.0
 70
   128
 71
     5
 72
     6
 73
    -7
  0
VERTEX
  5
4AD
330
48F
100
AcDbEntity
  8
M-EQPM
 62
   251
420
  4674641
100
AcDbFaceRecord
 10
0.0
 20
0.0
 30
0.0
 70
   128
 71
    24
 72
     1
 73
    -2
 74
   -22
  0
VERTEX
  5
4AE
330
48F
100
AcDbEntity
  8
M-EQPM
 62
   251
420
  4674641
100
AcDbFaceRecord
 10
0.0
 20
0.0
 30
0.0
 70
   128
 71
    11
 72
   -12
 73
   -15
 74
   -19
  0
VERTEX
  5
4AF
330
48F
100
AcDbEntity
  8
M-EQPM
 62
   251
420
  4674641
100
AcDbFaceRecord
 10
0.0
 20
0.0
 30
0.0
 70
   128
 71
    13
 72
    14
 73
   -15
 74
    12
  0
VERTEX
  5
4B0
330
48F
100
AcDbEntity
  8
M-EQPM
 62
   251
420
  4674641
100
AcDbFaceRecord
 10
0.0
 20
0.0
 30
0.0
 70
   128
 71
    16
 72
    17
 73
    18
 74
   -19
  0
VERTEX
  5
4B1
330
48F
100
AcDbEntity
  8
M-EQPM
 62
   251
420
  4674641
100
AcDbFaceRecord
 10
0.0
 20
0.0
 30
0.0
 70
   128
 71
    15
 72
   -16
 73
   -19
  0
VERTEX
  5
4B2
330
48F
100
AcDbEntity
  8
M-EQPM
 62
   251
420
  4674641
100
AcDbFaceRecord
 10
0.0
 20
0.0
 30
0.0
 70
   128
 71
   -24
 72
    22
 73
    23
  0
VERTEX
  5
4B3
330
48F
100
AcDbEntity
  8
M-EQPM
 62
   251
420
  4674641
100
AcDbFaceRecord
 10
0.0
 20
0.0
 30
0.0
 70
   128
 71
    19
 72
    20
 73
    21
 74
   -22
  0
VERTEX
  5
4B4
330
48F
100
AcDbEntity
  8
M-EQPM
 62
   251
420
  4674641
100
AcDbFaceRecord
 10
0.0
 20
0.0
 30
0.0
 70
   128
 71
   -19
 72
   -22
 73
    -2
  0
SEQEND
  5
4B5
330
48F
100
AcDbEntity
  8
M-EQPM
 62
   251
420
  4674641
  0
POLYLINE
  5
4B6
330
70
100
AcDbEntity
  8
M-EQPM
 62
   251
420
  4674641
100
AcDbPolyFaceMesh
 66
     1
 10
0.0
 20
0.0
 30
0.0
 70
    64
 71
    26
 72
    12
1001
REVIT
1002
{
1070
     1
1000
30458
1002
}
1002
{
1070
     4
1000
3251
1002
}
1002
{
1070
     2
1000
-2001140
1002
}
1002
{
1070
     3
1000
11945
1002
}
  0
VERTEX
  5
4B7
330
4B6
100
AcDbEntity
  8
M-EQPM
 62
   251
420
  4674641
100
AcDbVertex
100
AcDbPolyFaceMeshVertex
 10
625.0000047683715
 20
-431.500006198883
 30
143.0000014543533
 70
   192
  0
VERTEX
  5
4B8
330
4B6
100
AcDbEntity
  8
M-EQPM
 62
   251
420
  4674641
100
AcDbVertex
100
AcDbPolyFaceMeshVertex
 10
625.0000047683715
 20
-429.3703760147095
 30
159.1761852264404
 70
   192
  0
VERTEX
  5
4B9
330
4B6
100
AcDbEntity
  8
M-EQPM
 62
   251
420
  4674641
100
AcDbVertex
100
AcDbPolyFaceMeshVertex
 10
625.0000047683715
 20
-423.1265710830689
 30
174.249992609024
 70
   192
  0
VERTEX
  5
4BA
330
4B6
100
AcDbEntity
  8
M-EQPM
 62
   251
420
  4674641
100
AcDbVertex
100
AcDbPolyFaceMeshVertex
 10
625.0000047683715
 20
-413.1941831588745
 30
187.1941698074341
 70
   192
  0
VERTEX
  5
4BB
330
4B6
100
AcDbEntity
  8
M-EQPM
 62
   251
420
  4674641
100
AcDbVertex
100
AcDbPolyFaceMeshVertex
 10
625.0000047683715
 20
-400.2499877929687
 30
197.1265940666198
 70
   192
  0
VERTEX
  5
4BC
330
4B6
100
AcDbEntity
  8
M-EQPM
 62
   251
420
  4674641
100
AcDbVertex
100
AcDbPolyFaceMeshVertex
 10
625.0000047683715
 20
-385.1761985778809
 30
203.3703626632691
 70
   192
  0
VERTEX
  5
4BD
330
4B6
100
AcDbEntity
  8
M-EQPM
 62
   251
420
  4674641
100
AcDbVertex
100
AcDbPolyFaceMeshVertex
 10
625.0000047683715
 20
-369.0000057220459
 30
205.4999928474426
 70
   192
  0
VERTEX
  5
4BE
330
4B6
100
AcDbEntity
  8
M-EQPM
 62
   251
420
  4674641
100
AcDbVertex
100
AcDbPolyFaceMeshVertex
 10
625.0000047683715
 20
-352.823812866211
 30
203.3703626632691
 70
   192
  0
VERTEX
  5
4BF
330
4B6
100
AcDbEntity
  8
M-EQPM
 62
   251
420
  4674641
100
AcDbVertex
100
AcDbPolyFaceMeshVertex
 10
625.0000047683715
 20
-337.7499873161316
 30
197.1265940666198
 70
   192
  0
VERTEX
  5
4C0
330
4B6
100
AcDbEntity
  8
M-EQPM
 62
   251
420
  4674641
100
AcDbVertex
100
AcDbPolyFaceMeshVertex
 10
625.0000047683715
 20
-324.8058282852173
 30
187.1941698074341
 70
   192
  0
VERTEX
  5
4C1
330
4B6
100
AcDbEntity
  8
M-EQPM
 62
   251
420
  4674641
100
AcDbVertex
100
AcDbPolyFaceMeshVertex
 10
625.0000047683715
 20
-314.8734040260315
 30
174.249992609024
 70
   192
  0
VERTEX
  5
4C2
330
4B6
100
AcDbEntity
  8
M-EQPM
 62
   251
420
  4674641
100
AcDbVertex
100
AcDbPolyFaceMeshVertex
 10
625.0000047683715
 20
-308.6296354293823
 30
159.1761852264404
 70
   192
  0
VERTEX
  5
4C3
330
4B6
100
AcDbEntity
  8
M-EQPM
 62
   251
420
  4674641
100
AcDbVertex
100
AcDbPolyFaceMeshVertex
 10
625.0000047683715
 20
-306.5000052452087
 30
143.0000014543533
 70
   192
  0
VERTEX
  5
4C4
330
4B6
100
AcDbEntity
  8
M-EQPM
 62
   251
420
  4674641
100
AcDbVertex
100
AcDbPolyFaceMeshVertex
 10
585.0000117301942
 20
-306.5000052452087
 30
143.0000014543533
 70
   192
  0
VERTEX
  5
4C5
330
4B6
100
AcDbEntity
  8
M-EQPM
 62
   251
420
  4674641
100
AcDbVertex
100
AcDbPolyFaceMeshVertex
 10
585.0000117301942
 20
-308.6296354293823
 30
159.1761852264404
 70
   192
  0
VERTEX
  5
4C6
330
4B6
100
AcDbEntity
  8
M-EQPM
 62
   251
420
  4674641
100
AcDbVertex
100
AcDbPolyFaceMeshVertex
 10
585.0000117301942
 20
-314.8734040260315
 30
174.249992609024
 70
   192
  0
VERTEX
  5
4C7
330
4B6
100
AcDbEntity
  8
M-EQPM
 62
   251
420
  4674641
100
AcDbVertex
100
AcDbPolyFaceMeshVertex
 10
585.0000117301942
 20
-324.8058282852173
 30
187.1941698074341
 70
   192
  0
VERTEX
  5
4C8
330
4B6
100
AcDbEntity
  8
M-EQPM
 62
   251
420
  4674641
100
AcDbVertex
100
AcDbPolyFaceMeshVertex
 10
585.0000117301942
 20
-337.7499873161316
 30
197.1265940666198
 70
   192
  0
VERTEX
  5
4C9
330
4B6
100
AcDbEntity
  8
M-EQPM
 62
   251
420
  4674641
100
AcDbVertex
100
AcDbPolyFaceMeshVertex
 10
585.0000117301942
 20
-352.823812866211
 30
203.3703626632691
 70
   192
  0
VERTEX
  5
4CA
330
4B6
100
AcDbEntity
  8
M-EQPM
 62
   251
420
  4674641
100
AcDbVertex
100
AcDbPolyFaceMeshVertex
 10
585.0000117301942
 20
-369.0000057220459
 30
205.4999928474426
 70
   192
  0
VERTEX
  5
4CB
330
4B6
100
AcDbEntity
  8
M-EQPM
 62
   251
420
  4674641
100
AcDbVertex
100
AcDbPolyFaceMeshVertex
 10
585.0000117301942
 20
-385.1761985778809
 30
203.3703626632691
 70
   192
  0
VERTEX
  5
4CC
330
4B6
100
AcDbEntity
  8
M-EQPM
 62
   251
420
  4674641
100
AcDbVertex
100
AcDbPolyFaceMeshVertex
 10
585.0000117301942
 20
-400.2499877929687
 30
197.1265940666198
 70
   192
  0
VERTEX
  5
4CD
330
4B6
100
AcDbEntity
  8
M-EQPM
 62
   251
420
  4674641
100
AcDbVertex
100
AcDbPolyFaceMeshVertex
 10
585.0000117301942
 20
-413.1941831588745
 30
187.1941698074341
 70
   192
  0
VERTEX
  5
4CE
330
4B6
100
AcDbEntity
  8
M-EQPM
 62
   251
420
  4674641
100
AcDbVertex
100
AcDbPolyFaceMeshVertex
 10
585.0000117301942
 20
-423.1265710830689
 30
174.249992609024
 70
   192
  0
VERTEX
  5
4CF
330
4B6
100
AcDbEntity
  8
M-EQPM
 62
   251
420
  4674641
100
AcDbVertex
100
AcDbPolyFaceMeshVertex
 10
585.0000117301942
 20
-429.3703760147095
 30
159.1761852264404
 70
   192
  0
VERTEX
  5
4D0
330
4B6
100
AcDbEntity
  8
M-EQPM
 62
   251
420
  4674641
100
AcDbVertex
100
AcDbPolyFaceMeshVertex
 10
585.0000117301942
 20
-431.500006198883
 30
143.0000014543533
 70
   192
  0
VERTEX
  5
4D1
330
4B6
100
AcDbEntity
  8
M-EQPM
 62
   251
420
  4674641
100
AcDbFaceRecord
 10
0.0
 20
0.0
 30
0.0
 70
   128
 71
    14
 72
   -15
 73
    12
 74
    13
  0
VERTEX
  5
4D2
330
4B6
100
AcDbEntity
  8
M-EQPM
 62
   251
420
  4674641
100
AcDbFaceRecord
 10
0.0
 20
0.0
 30
0.0
 70
   128
 71
    15
 72
   -16
 73
    11
 74
   -12
  0
VERTEX
  5
4D3
330
4B6
100
AcDbEntity
  8
M-EQPM
 62
   251
420
  4674641
100
AcDbFaceRecord
 10
0.0
 20
0.0
 30
0.0
 70
   128
 71
    17
 72
   -18
 73
     9
 74
   -10
  0
VERTEX
  5
4D4
330
4B6
100
AcDbEntity
  8
M-EQPM
 62
   251
420
  4674641
100
AcDbFaceRecord
 10
0.0
 20
0.0
 30
0.0
 70
   128
 71
    16
 72
   -17
 73
    10
 74
   -11
  0
VERTEX
  5
4D5
330
4B6
100
AcDbEntity
  8
M-EQPM
 62
   251
420
  4674641
100
AcDbFaceRecord
 10
0.0
 20
0.0
 30
0.0
 70
   128
 71
    18
 72
   -19
 73
     8
 74
    -9
  0
VERTEX
  5
4D6
330
4B6
100
AcDbEntity
  8
M-EQPM
 62
   251
420
  4674641
100
AcDbFaceRecord
 10
0.0
 20
0.0
 30
0.0
 70
   128
 71
     7
 72
    -8
 73
    19
 74
   -20
  0
VERTEX
  5
4D7
330
4B6
100
AcDbEntity
  8
M-EQPM
 62
   251
420
  4674641
100
AcDbFaceRecord
 10
0.0
 20
0.0
 30
0.0
 70
   128
 71
    20
 72
   -21
 73
     6
 74
    -7
  0
VERTEX
  5
4D8
330
4B6
100
AcDbEntity
  8
M-EQPM
 62
   251
420
  4674641
100
AcDbFaceRecord
 10
0.0
 20
0.0
 30
0.0
 70
   128
 71
    21
 72
   -22
 73
     5
 74
    -6
  0
VERTEX
  5
4D9
330
4B6
100
AcDbEntity
  8
M-EQPM
 62
   251
420
  4674641
100
AcDbFaceRecord
 10
0.0
 20
0.0
 30
0.0
 70
   128
 71
    -2
 72
    25
 73
    26
 74
     1
  0
VERTEX
  5
4DA
330
4B6
100
AcDbEntity
  8
M-EQPM
 62
   251
420
  4674641
100
AcDbFaceRecord
 10
0.0
 20
0.0
 30
0.0
 70
   128
 71
    22
 72
   -23
 73
     4
 74
    -5
  0
VERTEX
  5
4DB
330
4B6
100
AcDbEntity
  8
M-EQPM
 62
   251
420
  4674641
100
AcDbFaceRecord
 10
0.0
 20
0.0
 30
0.0
 70
   128
 71
   -24
 72
     3
 73
    -4
 74
    23
  0
VERTEX
  5
4DC
330
4B6
100
AcDbEntity
  8
M-EQPM
 62
   251
420
  4674641
100
AcDbFaceRecord
 10
0.0
 20
0.0
 30
0.0
 70
   128
 71
    -3
 72
    24
 73
   -25
 74
     2
  0
SEQEND
  5
4DD
330
4B6
100
AcDbEntity
  8
M-EQPM
 62
   251
420
  4674641
  0
POLYLINE
  5
4DE
330
70
100
AcDbEntity
  8
M-EQPM
 62
   251
420
  4674641
100
AcDbPolyFaceMesh
 66
     1
 10
0.0
 20
0.0
 30
0.0
 70
    64
 71
    26
 72
    12
1001
REVIT
1002
{
1070
     1
1000
30458
1002
}
1002
{
1070
     4
1000
3251
1002
}
1002
{
1070
     2
1000
-2001140
1002
}
1002
{
1070
     3
1000
11945
1002
}
  0
VERTEX
  5
4DF
330
4DE
100
AcDbEntity
  8
M-EQPM
 62
   251
420
  4674641
100
AcDbVertex
100
AcDbPolyFaceMeshVertex
 10
625.0000047683715
 20
-306.5000052452087
 30
143.0000014543533
 70
   192
  0
VERTEX
  5
4E0
330
4DE
100
AcDbEntity
  8
M-EQPM
 62
   251
420
  4674641
100
AcDbVertex
100
AcDbPolyFaceMeshVertex
 10
625.0000047683715
 20
-308.6296354293823
 30
126.8238085985184
 70
   192
  0
VERTEX
  5
4E1
330
4DE
100
AcDbEntity
  8
M-EQPM
 62
   251
420
  4674641
100
AcDbVertex
100
AcDbPolyFaceMeshVertex
 10
625.0000047683715
 20
-314.8734040260315
 30
111.7500012159347
 70
   192
  0
VERTEX
  5
4E2
330
4DE
100
AcDbEntity
  8
M-EQPM
 62
   251
420
  4674641
100
AcDbVertex
100
AcDbPolyFaceMeshVertex
 10
625.0000047683715
 20
-324.8058282852173
 30
98.80582401752473
 70
   192
  0
VERTEX
  5
4E3
330
4DE
100
AcDbEntity
  8
M-EQPM
 62
   251
420
  4674641
100
AcDbVertex
100
AcDbPolyFaceMeshVertex
 10
625.0000047683715
 20
-337.7499873161316
 30
88.87340884208679
 70
   192
  0
VERTEX
  5
4E4
330
4DE
100
AcDbEntity
  8
M-EQPM
 62
   251
420
  4674641
100
AcDbVertex
100
AcDbPolyFaceMeshVertex
 10
625.0000047683715
 20
-352.823812866211
 30
82.62964024543762
 70
   192
  0
VERTEX
  5
4E5
330
4DE
100
AcDbEntity
  8
M-EQPM
 62
   251
420
  4674641
100
AcDbVertex
100
AcDbPolyFaceMeshVertex
 10
625.0000047683715
 20
-369.0000057220459
 30
80.50000097751619
 70
   192
  0
VERTEX
  5
4E6
330
4DE
100
AcDbEntity
  8
M-EQPM
 62
   251
420
  4674641
100
AcDbVertex
100
AcDbPolyFaceMeshVertex
 10
625.0000047683715
 20
-385.1761985778809
 30
82.62964024543762
 70
   192
  0
VERTEX
  5
4E7
330
4DE
100
AcDbEntity
  8
M-EQPM
 62
   251
420
  4674641
100
AcDbVertex
100
AcDbPolyFaceMeshVertex
 10
625.0000047683715
 20
-400.2499877929687
 30
88.87340884208679
 70
   192
  0
VERTEX
  5
4E8
330
4DE
100
AcDbEntity
  8
M-EQPM
 62
   251
420
  4674641
100
AcDbVertex
100
AcDbPolyFaceMeshVertex
 10
625.0000047683715
 20
-413.1941831588745
 30
98.80582401752473
 70
   192
  0
VERTEX
  5
4E9
330
4DE
100
AcDbEntity
  8
M-EQPM
 62
   251
420
  4674641
100
AcDbVertex
100
AcDbPolyFaceMeshVertex
 10
625.0000047683715
 20
-423.1265710830689
 30
111.7500012159347
 70
   192
  0
VERTEX
  5
4EA
330
4DE
100
AcDbEntity
  8
M-EQPM
 62
   251
420
  4674641
100
AcDbVertex
100
AcDbPolyFaceMeshVertex
 10
625.0000047683715
 20
-429.3703760147095
 30
126.8238085985184
 70
   192
  0
VERTEX
  5
4EB
330
4DE
100
AcDbEntity
  8
M-EQPM
 62
   251
420
  4674641
100
AcDbVertex
100
AcDbPolyFaceMeshVertex
 10
625.0000047683715
 20
-431.500006198883
 30
143.0000014543533
 70
   192
  0
VERTEX
  5
4EC
330
4DE
100
AcDbEntity
  8
M-EQPM
 62
   251
420
  4674641
100
AcDbVertex
100
AcDbPolyFaceMeshVertex
 10
585.0000117301942
 20
-431.500006198883
 30
143.0000014543533
 70
   192
  0
VERTEX
  5
4ED
330
4DE
100
AcDbEntity
  8
M-EQPM
 62
   251
420
  4674641
100
AcDbVertex
100
AcDbPolyFaceMeshVertex
 10
585.0000117301942
 20
-429.3703760147095
 30
126.8238085985184
 70
   192
  0
VERTEX
  5
4EE
330
4DE
100
AcDbEntity
  8
M-EQPM
 62
   251
420
  4674641
100
AcDbVertex
100
AcDbPolyFaceMeshVertex
 10
585.0000117301942
 20
-423.1265710830689
 30
111.7500012159347
 70
   192
  0
VERTEX
  5
4EF
330
4DE
100
AcDbEntity
  8
M-EQPM
 62
   251
420
  4674641
100
AcDbVertex
100
AcDbPolyFaceMeshVertex
 10
585.0000117301942
 20
-413.1941831588745
 30
98.80582401752473
 70
   192
  0
VERTEX
  5
4F0
330
4DE
100
AcDbEntity
  8
M-EQPM
 62
   251
420
  4674641
100
AcDbVertex
100
AcDbPolyFaceMeshVertex
 10
585.0000117301942
 20
-400.2499877929687
 30
88.87340884208679
 70
   192
  0
VERTEX
  5
4F1
330
4DE
100
AcDbEntity
  8
M-EQPM
 62
   251
420
  4674641
100
AcDbVertex
100
AcDbPolyFaceMeshVertex
 10
585.0000117301942
 20
-385.1761985778809
 30
82.62964024543762
 70
   192
  0
VERTEX
  5
4F2
330
4DE
100
AcDbEntity
  8
M-EQPM
 62
   251
420
  4674641
100
AcDbVertex
100
AcDbPolyFaceMeshVertex
 10
585.0000117301942
 20
-369.0000057220459
 30
80.50000097751619
 70
   192
  0
VERTEX
  5
4F3
330
4DE
100
AcDbEntity
  8
M-EQPM
 62
   251
420
  4674641
100
AcDbVertex
100
AcDbPolyFaceMeshVertex
 10
585.0000117301942
 20
-352.823812866211
 30
82.62964024543762
 70
   192
  0
VERTEX
  5
4F4
330
4DE
100
AcDbEntity
  8
M-EQPM
 62
   251
420
  4674641
100
AcDbVertex
100
AcDbPolyFaceMeshVertex
 10
585.0000117301942
 20
-337.7499873161316
 30
88.87340884208679
 70
   192
  0
VERTEX
  5
4F5
330
4DE
100
AcDbEntity
  8
M-EQPM
 62
   251
420
  4674641
100
AcDbVertex
100
AcDbPolyFaceMeshVertex
 10
585.0000117301942
 20
-324.8058282852173
 30
98.80582401752473
 70
   192
  0
VERTEX
  5
4F6
330
4DE
100
AcDbEntity
  8
M-EQPM
 62
   251
420
  4674641
100
AcDbVertex
100
AcDbPolyFaceMeshVertex
 10
585.0000117301942
 20
-314.8734040260315
 30
111.7500012159347
 70
   192
  0
VERTEX
  5
4F7
330
4DE
100
AcDbEntity
  8
M-EQPM
 62
   251
420
  4674641
100
AcDbVertex
100
AcDbPolyFaceMeshVertex
 10
585.0000117301942
 20
-308.6296354293823
 30
126.8238085985184
 70
   192
  0
VERTEX
  5
4F8
330
4DE
100
AcDbEntity
  8
M-EQPM
 62
   251
420
  4674641
100
AcDbVertex
100
AcDbPolyFaceMeshVertex
 10
585.0000117301942
 20
-306.5000052452087
 30
143.0000014543533
 70
   192
  0
VERTEX
  5
4F9
330
4DE
100
AcDbEntity
  8
M-EQPM
 62
   251
420
  4674641
100
AcDbFaceRecord
 10
0.0
 20
0.0
 30
0.0
 70
   128
 71
    14
 72
   -15
 73
    12
 74
    13
  0
VERTEX
  5
4FA
330
4DE
100
AcDbEntity
  8
M-EQPM
 62
   251
420
  4674641
100
AcDbFaceRecord
 10
0.0
 20
0.0
 30
0.0
 70
   128
 71
    15
 72
   -16
 73
    11
 74
   -12
  0
VERTEX
  5
4FB
330
4DE
100
AcDbEntity
  8
M-EQPM
 62
   251
420
  4674641
100
AcDbFaceRecord
 10
0.0
 20
0.0
 30
0.0
 70
   128
 71
    17
 72
   -18
 73
     9
 74
   -10
  0
VERTEX
  5
4FC
330
4DE
100
AcDbEntity
  8
M-EQPM
 62
   251
420
  4674641
100
AcDbFaceRecord
 10
0.0
 20
0.0
 30
0.0
 70
   128
 71
    16
 72
   -17
 73
    10
 74
   -11
  0
VERTEX
  5
4FD
330
4DE
100
AcDbEntity
  8
M-EQPM
 62
   251
420
  4674641
100
AcDbFaceRecord
 10
0.0
 20
0.0
 30
0.0
 70
   128
 71
    18
 72
   -19
 73
     8
 74
    -9
  0
VERTEX
  5
4FE
330
4DE
100
AcDbEntity
  8
M-EQPM
 62
   251
420
  4674641
100
AcDbFaceRecord
 10
0.0
 20
0.0
 30
0.0
 70
   128
 71
     7
 72
    -8
 73
    19
 74
   -20
  0
VERTEX
  5
4FF
330
4DE
100
AcDbEntity
  8
M-EQPM
 62
   251
420
  4674641
100
AcDbFaceRecord
 10
0.0
 20
0.0
 30
0.0
 70
   128
 71
    -5
 72
    22
 73
   -23
 74
     4
  0
VERTEX
  5
500
330
4DE
100
AcDbEntity
  8
M-EQPM
 62
   251
420
  4674641
100
AcDbFaceRecord
 10
0.0
 20
0.0
 30
0.0
 70
   128
 71
    -3
 72
    24
 73
   -25
 74
     2
  0
VERTEX
  5
501
330
4DE
100
AcDbEntity
  8
M-EQPM
 62
   251
420
  4674641
100
AcDbFaceRecord
 10
0.0
 20
0.0
 30
0.0
 70
   128
 71
    -4
 72
    23
 73
   -24
 74
     3
  0
VERTEX
  5
502
330
4DE
100
AcDbEntity
  8
M-EQPM
 62
   251
420
  4674641
100
AcDbFaceRecord
 10
0.0
 20
0.0
 30
0.0
 70
   128
 71
    -2
 72
    25
 73
    26
 74
     1
  0
VERTEX
  5
503
330
4DE
100
AcDbEntity
  8
M-EQPM
 62
   251
420
  4674641
100
AcDbFaceRecord
 10
0.0
 20
0.0
 30
0.0
 70
   128
 71
     5
 72
    -6
 73
    21
 74
   -22
  0
VERTEX
  5
504
330
4DE
100
AcDbEntity
  8
M-EQPM
 62
   251
420
  4674641
100
AcDbFaceRecord
 10
0.0
 20
0.0
 30
0.0
 70
   128
 71
    20
 72
   -21
 73
     6
 74
    -7
  0
SEQEND
  5
505
330
4DE
100
AcDbEntity
  8
M-EQPM
 62
   251
420
  4674641
  0
POLYLINE
  5
506
330
70
100
AcDbEntity
  8
M-EQPM
 62
   251
420
  4674641
100
AcDbPolyFaceMesh
 66
     1
 10
0.0
 20
0.0
 30
0.0
 70
    64
 71
    24
 72
    13
1001
REVIT
1002
{
1070
     1
1000
30740
1002
}
1002
{
1070
     4
1000
3251
1002
}
1002
{
1070
     2
1000
-2001140
1002
}
1002
{
1070
     3
1000
11945
1002
}
  0
VERTEX
  5
507
330
506
100
AcDbEntity
  8
M-EQPM
 62
   251
420
  4674641
100
AcDbVertex
100
AcDbPolyFaceMeshVertex
 10
62.50000047683716
 20
-613.0000104904175
 30
143.0000014543533
 70
   192
  0
VERTEX
  5
508
330
506
100
AcDbEntity
  8
M-EQPM
 62
   251
420
  4674641
100
AcDbVertex
100
AcDbPolyFaceMeshVertex
 10
60.37036575078964
 20
-613.0000104904175
 30
159.1761852264404
 70
   192
  0
VERTEX
  5
509
330
506
100
AcDbEntity
  8
M-EQPM
 62
   251
420
  4674641
100
AcDbVertex
100
AcDbPolyFaceMeshVertex
 10
54.1265880703926
 20
-613.0000104904175
 30
174.249992609024
 70
   192
  0
VERTEX
  5
50A
330
506
100
AcDbEntity
  8
M-EQPM
 62
   251
420
  4674641
100
AcDbVertex
100
AcDbPolyFaceMeshVertex
 10
44.19417289495468
 20
-613.0000104904175
 30
187.1941698074341
 70
   192
  0
VERTEX
  5
50B
330
506
100
AcDbEntity
  8
M-EQPM
 62
   251
420
  4674641
100
AcDbVertex
100
AcDbPolyFaceMeshVertex
 10
31.25000023841858
 20
-613.0000104904175
 30
197.1265940666198
 70
   192
  0
VERTEX
  5
50C
330
506
100
AcDbEntity
  8
M-EQPM
 62
   251
420
  4674641
100
AcDbVertex
100
AcDbPolyFaceMeshVertex
 10
16.17619058489799
 20
-613.0000104904175
 30
203.3703626632691
 70
   192
  0
VERTEX
  5
50D
330
506
100
AcDbEntity
  8
M-EQPM
 62
   251
420
  4674641
100
AcDbVertex
100
AcDbPolyFaceMeshVertex
 10
0.0000000000005584
 20
-613.0000104904175
 30
205.4999928474426
 70
   192
  0
VERTEX
  5
50E
330
506
100
AcDbEntity
  8
M-EQPM
 62
   251
420
  4674641
100
AcDbVertex
100
AcDbPolyFaceMeshVertex
 10
-16.17619058489799
 20
-613.0000104904175
 30
203.3703626632691
 70
   192
  0
VERTEX
  5
50F
330
506
100
AcDbEntity
  8
M-EQPM
 62
   251
420
  4674641
100
AcDbVertex
100
AcDbPolyFaceMeshVertex
 10
-31.25000023841858
 20
-613.0000104904175
 30
197.1265940666198
 70
   192
  0
VERTEX
  5
510
330
506
100
AcDbEntity
  8
M-EQPM
 62
   251
420
  4674641
100
AcDbVertex
100
AcDbPolyFaceMeshVertex
 10
-44.19417289495468
 20
-613.0000104904175
 30
187.1941698074341
 70
   192
  0
VERTEX
  5
511
330
506
100
AcDbEntity
  8
M-EQPM
 62
   251
420
  4674641
100
AcDbVertex
100
AcDbPolyFaceMeshVertex
 10
-54.1265880703926
 20
-613.0000104904175
 30
174.249992609024
 70
   192
  0
VERTEX
  5
512
330
506
100
AcDbEntity
  8
M-EQPM
 62
   251
420
  4674641
100
AcDbVertex
100
AcDbPolyFaceMeshVertex
 10
-60.37036575078964
 20
-613.0000104904175
 30
159.1761852264404
 70
   192
  0
VERTEX
  5
513
330
506
100
AcDbEntity
  8
M-EQPM
 62
   251
420
  4674641
100
AcDbVertex
100
AcDbPolyFaceMeshVertex
 10
-62.50000047683716
 20
-613.0000104904175
 30
143.0000014543533
 70
   192
  0
VERTEX
  5
514
330
506
100
AcDbEntity
  8
M-EQPM
 62
   251
420
  4674641
100
AcDbVertex
100
AcDbPolyFaceMeshVertex
 10
-60.37036575078964
 20
-613.0000104904175
 30
126.8238085985184
 70
   192
  0
VERTEX
  5
515
330
506
100
AcDbEntity
  8
M-EQPM
 62
   251
420
  4674641
100
AcDbVertex
100
AcDbPolyFaceMeshVertex
 10
-54.1265880703926
 20
-613.0000104904175
 30
111.7500012159347
 70
   192
  0
VERTEX
  5
516
330
506
100
AcDbEntity
  8
M-EQPM
 62
   251
420
  4674641
100
AcDbVertex
100
AcDbPolyFaceMeshVertex
 10
-44.19417289495468
 20
-613.0000104904175
 30
98.80582401752473
 70
   192
  0
VERTEX
  5
517
330
506
100
AcDbEntity
  8
M-EQPM
 62
   251
420
  4674641
100
AcDbVertex
100
AcDbPolyFaceMeshVertex
 10
-31.25000023841858
 20
-613.0000104904175
 30
88.87340884208679
 70
   192
  0
VERTEX
  5
518
330
506
100
AcDbEntity
  8
M-EQPM
 62
   251
420
  4674641
100
AcDbVertex
100
AcDbPolyFaceMeshVertex
 10
-16.17619058489799
 20
-613.0000104904175
 30
82.62964024543762
 70
   192
  0
VERTEX
  5
519
330
506
100
AcDbEntity
  8
M-EQPM
 62
   251
420
  4674641
100
AcDbVertex
100
AcDbPolyFaceMeshVertex
 10
-0.00000000000022
 20
-613.0000104904175
 30
80.50000097751619
 70
   192
  0
VERTEX
  5
51A
330
506
100
AcDbEntity
  8
M-EQPM
 62
   251
420
  4674641
100
AcDbVertex
100
AcDbPolyFaceMeshVertex
 10
16.17619058489799
 20
-613.0000104904175
 30
82.62964024543762
 70
   192
  0
VERTEX
  5
51B
330
506
100
AcDbEntity
  8
M-EQPM
 62
   251
420
  4674641
100
AcDbVertex
100
AcDbPolyFaceMeshVertex
 10
31.25000023841858
 20
-613.0000104904175
 30
88.87340884208679
 70
   192
  0
VERTEX
  5
51C
330
506
100
AcDbEntity
  8
M-EQPM
 62
   251
420
  4674641
100
AcDbVertex
100
AcDbPolyFaceMeshVertex
 10
44.19417289495468
 20
-613.0000104904175
 30
98.80582401752473
 70
   192
  0
VERTEX
  5
51D
330
506
100
AcDbEntity
  8
M-EQPM
 62
   251
420
  4674641
100
AcDbVertex
100
AcDbPolyFaceMeshVertex
 10
54.1265880703926
 20
-613.0000104904175
 30
111.7500012159347
 70
   192
  0
VERTEX
  5
51E
330
506
100
AcDbEntity
  8
M-EQPM
 62
   251
420
  4674641
100
AcDbVertex
100
AcDbPolyFaceMeshVertex
 10
60.37036575078964
 20
-613.0000104904175
 30
126.8238085985184
 70
   192
  0
VERTEX
  5
51F
330
506
100
AcDbEntity
  8
M-EQPM
 62
   251
420
  4674641
100
AcDbFaceRecord
 10
0.0
 20
0.0
 30
0.0
 70
   128
 71
     8
 72
     9
 73
   -10
 74
    -6
  0
VERTEX
  5
520
330
506
100
AcDbEntity
  8
M-EQPM
 62
   251
420
  4674641
100
AcDbFaceRecord
 10
0.0
 20
0.0
 30
0.0
 70
   128
 71
    12
 72
   -13
 73
    10
 74
    11
  0
VERTEX
  5
521
330
506
100
AcDbEntity
  8
M-EQPM
 62
   251
420
  4674641
100
AcDbFaceRecord
 10
0.0
 20
0.0
 30
0.0
 70
   128
 71
   -10
 72
   -13
 73
    -2
 74
    -6
  0
VERTEX
  5
522
330
506
100
AcDbEntity
  8
M-EQPM
 62
   251
420
  4674641
100
AcDbFaceRecord
 10
0.0
 20
0.0
 30
0.0
 70
   128
 71
    -6
 72
    -2
 73
     5
  0
VERTEX
  5
523
330
506
100
AcDbEntity
  8
M-EQPM
 62
   251
420
  4674641
100
AcDbFaceRecord
 10
0.0
 20
0.0
 30
0.0
 70
   128
 71
     6
 72
     7
 73
    -8
  0
VERTEX
  5
524
330
506
100
AcDbEntity
  8
M-EQPM
 62
   251
420
  4674641
100
AcDbFaceRecord
 10
0.0
 20
0.0
 30
0.0
 70
   128
 71
     2
 72
     3
 73
     4
 74
    -5
  0
VERTEX
  5
525
330
506
100
AcDbEntity
  8
M-EQPM
 62
   251
420
  4674641
100
AcDbFaceRecord
 10
0.0
 20
0.0
 30
0.0
 70
   128
 71
    -2
 72
   -13
 73
    24
 74
     1
  0
VERTEX
  5
526
330
506
100
AcDbEntity
  8
M-EQPM
 62
   251
420
  4674641
100
AcDbFaceRecord
 10
0.0
 20
0.0
 30
0.0
 70
   128
 71
    14
 72
   -15
 73
   -24
 74
    13
  0
VERTEX
  5
527
330
506
100
AcDbEntity
  8
M-EQPM
 62
   251
420
  4674641
100
AcDbFaceRecord
 10
0.0
 20
0.0
 30
0.0
 70
   128
 71
    15
 72
   -16
 73
   -18
 74
   -24
  0
VERTEX
  5
528
330
506
100
AcDbEntity
  8
M-EQPM
 62
   251
420
  4674641
100
AcDbFaceRecord
 10
0.0
 20
0.0
 30
0.0
 70
   128
 71
   -18
 72
    16
 73
    17
  0
VERTEX
  5
529
330
506
100
AcDbEntity
  8
M-EQPM
 62
   251
420
  4674641
100
AcDbFaceRecord
 10
0.0
 20
0.0
 30
0.0
 70
   128
 71
   -19
 72
   -24
 73
    18
  0
VERTEX
  5
52A
330
506
100
AcDbEntity
  8
M-EQPM
 62
   251
420
  4674641
100
AcDbFaceRecord
 10
0.0
 20
0.0
 30
0.0
 70
   128
 71
    22
 72
    23
 73
   -24
 74
   -19
  0
VERTEX
  5
52B
330
506
100
AcDbEntity
  8
M-EQPM
 62
   251
420
  4674641
100
AcDbFaceRecord
 10
0.0
 20
0.0
 30
0.0
 70
   128
 71
    20
 72
    21
 73
   -22
 74
    19
  0
SEQEND
  5
52C
330
506
100
AcDbEntity
  8
M-EQPM
 62
   251
420
  4674641
  0
POLYLINE
  5
52D
330
70
100
AcDbEntity
  8
M-EQPM
 62
   251
420
  4674641
100
AcDbPolyFaceMesh
 66
     1
 10
0.0
 20
0.0
 30
0.0
 70
    64
 71
    24
 72
    13
1001
REVIT
1002
{
1070
     1
1000
30740
1002
}
1002
{
1070
     4
1000
3251
1002
}
1002
{
1070
     2
1000
-2001140
1002
}
1002
{
1070
     3
1000
11945
1002
}
  0
VERTEX
  5
52E
330
52D
100
AcDbEntity
  8
M-EQPM
 62
   251
420
  4674641
100
AcDbVertex
100
AcDbPolyFaceMeshVertex
 10
62.50000047683716
 20
-570.9999941825866
 30
143.0000014543533
 70
   192
  0
VERTEX
  5
52F
330
52D
100
AcDbEntity
  8
M-EQPM
 62
   251
420
  4674641
100
AcDbVertex
100
AcDbPolyFaceMeshVertex
 10
60.37036575078964
 20
-570.9999941825866
 30
126.8238085985184
 70
   192
  0
VERTEX
  5
530
330
52D
100
AcDbEntity
  8
M-EQPM
 62
   251
420
  4674641
100
AcDbVertex
100
AcDbPolyFaceMeshVertex
 10
54.1265880703926
 20
-570.9999941825866
 30
111.7500012159347
 70
   192
  0
VERTEX
  5
531
330
52D
100
AcDbEntity
  8
M-EQPM
 62
   251
420
  4674641
100
AcDbVertex
100
AcDbPolyFaceMeshVertex
 10
44.19417289495468
 20
-570.9999941825866
 30
98.80582401752473
 70
   192
  0
VERTEX
  5
532
330
52D
100
AcDbEntity
  8
M-EQPM
 62
   251
420
  4674641
100
AcDbVertex
100
AcDbPolyFaceMeshVertex
 10
31.25000023841858
 20
-570.9999941825866
 30
88.87340884208679
 70
   192
  0
VERTEX
  5
533
330
52D
100
AcDbEntity
  8
M-EQPM
 62
   251
420
  4674641
100
AcDbVertex
100
AcDbPolyFaceMeshVertex
 10
16.17619058489799
 20
-570.9999941825866
 30
82.62964024543762
 70
   192
  0
VERTEX
  5
534
330
52D
100
AcDbEntity
  8
M-EQPM
 62
   251
420
  4674641
100
AcDbVertex
100
AcDbPolyFaceMeshVertex
 10
-0.00000000000022
 20
-570.9999941825866
 30
80.50000097751619
 70
   192
  0
VERTEX
  5
535
330
52D
100
AcDbEntity
  8
M-EQPM
 62
   251
420
  4674641
100
AcDbVertex
100
AcDbPolyFaceMeshVertex
 10
-16.17619058489799
 20
-570.9999941825866
 30
82.62964024543762
 70
   192
  0
VERTEX
  5
536
330
52D
100
AcDbEntity
  8
M-EQPM
 62
   251
420
  4674641
100
AcDbVertex
100
AcDbPolyFaceMeshVertex
 10
-31.25000023841858
 20
-570.9999941825866
 30
88.87340884208679
 70
   192
  0
VERTEX
  5
537
330
52D
100
AcDbEntity
  8
M-EQPM
 62
   251
420
  4674641
100
AcDbVertex
100
AcDbPolyFaceMeshVertex
 10
-44.19417289495468
 20
-570.9999941825866
 30
98.80582401752473
 70
   192
  0
VERTEX
  5
538
330
52D
100
AcDbEntity
  8
M-EQPM
 62
   251
420
  4674641
100
AcDbVertex
100
AcDbPolyFaceMeshVertex
 10
-54.1265880703926
 20
-570.9999941825866
 30
111.7500012159347
 70
   192
  0
VERTEX
  5
539
330
52D
100
AcDbEntity
  8
M-EQPM
 62
   251
420
  4674641
100
AcDbVertex
100
AcDbPolyFaceMeshVertex
 10
-60.37036575078964
 20
-570.9999941825866
 30
126.8238085985184
 70
   192
  0
VERTEX
  5
53A
330
52D
100
AcDbEntity
  8
M-EQPM
 62
   251
420
  4674641
100
AcDbVertex
100
AcDbPolyFaceMeshVertex
 10
-62.50000047683716
 20
-570.9999941825866
 30
143.0000014543533
 70
   192
  0
VERTEX
  5
53B
330
52D
100
AcDbEntity
  8
M-EQPM
 62
   251
420
  4674641
100
AcDbVertex
100
AcDbPolyFaceMeshVertex
 10
-60.37036575078964
 20
-570.9999941825866
 30
159.1761852264404
 70
   192
  0
VERTEX
  5
53C
330
52D
100
AcDbEntity
  8
M-EQPM
 62
   251
420
  4674641
100
AcDbVertex
100
AcDbPolyFaceMeshVertex
 10
-54.1265880703926
 20
-570.9999941825866
 30
174.249992609024
 70
   192
  0
VERTEX
  5
53D
330
52D
100
AcDbEntity
  8
M-EQPM
 62
   251
420
  4674641
100
AcDbVertex
100
AcDbPolyFaceMeshVertex
 10
-44.19417289495468
 20
-570.9999941825866
 30
187.1941698074341
 70
   192
  0
VERTEX
  5
53E
330
52D
100
AcDbEntity
  8
M-EQPM
 62
   251
420
  4674641
100
AcDbVertex
100
AcDbPolyFaceMeshVertex
 10
-31.25000023841858
 20
-570.9999941825866
 30
197.1265940666198
 70
   192
  0
VERTEX
  5
53F
330
52D
100
AcDbEntity
  8
M-EQPM
 62
   251
420
  4674641
100
AcDbVertex
100
AcDbPolyFaceMeshVertex
 10
-16.17619058489799
 20
-570.9999941825866
 30
203.3703626632691
 70
   192
  0
VERTEX
  5
540
330
52D
100
AcDbEntity
  8
M-EQPM
 62
   251
420
  4674641
100
AcDbVertex
100
AcDbPolyFaceMeshVertex
 10
0.0000000000005584
 20
-570.9999941825866
 30
205.4999928474426
 70
   192
  0
VERTEX
  5
541
330
52D
100
AcDbEntity
  8
M-EQPM
 62
   251
420
  4674641
100
AcDbVertex
100
AcDbPolyFaceMeshVertex
 10
16.17619058489799
 20
-570.9999941825866
 30
203.3703626632691
 70
   192
  0
VERTEX
  5
542
330
52D
100
AcDbEntity
  8
M-EQPM
 62
   251
420
  4674641
100
AcDbVertex
100
AcDbPolyFaceMeshVertex
 10
31.25000023841858
 20
-570.9999941825866
 30
197.1265940666198
 70
   192
  0
VERTEX
  5
543
330
52D
100
AcDbEntity
  8
M-EQPM
 62
   251
420
  4674641
100
AcDbVertex
100
AcDbPolyFaceMeshVertex
 10
44.19417289495468
 20
-570.9999941825866
 30
187.1941698074341
 70
   192
  0
VERTEX
  5
544
330
52D
100
AcDbEntity
  8
M-EQPM
 62
   251
420
  4674641
100
AcDbVertex
100
AcDbPolyFaceMeshVertex
 10
54.1265880703926
 20
-570.9999941825866
 30
174.249992609024
 70
   192
  0
VERTEX
  5
545
330
52D
100
AcDbEntity
  8
M-EQPM
 62
   251
420
  4674641
100
AcDbVertex
100
AcDbPolyFaceMeshVertex
 10
60.37036575078964
 20
-570.9999941825866
 30
159.1761852264404
 70
   192
  0
VERTEX
  5
546
330
52D
100
AcDbEntity
  8
M-EQPM
 62
   251
420
  4674641
100
AcDbFaceRecord
 10
0.0
 20
0.0
 30
0.0
 70
   128
 71
     6
 72
     7
 73
    -8
 74
   -11
  0
VERTEX
  5
547
330
52D
100
AcDbEntity
  8
M-EQPM
 62
   251
420
  4674641
100
AcDbFaceRecord
 10
0.0
 20
0.0
 30
0.0
 70
   128
 71
     8
 72
     9
 73
    10
 74
   -11
  0
VERTEX
  5
548
330
52D
100
AcDbEntity
  8
M-EQPM
 62
   251
420
  4674641
100
AcDbFaceRecord
 10
0.0
 20
0.0
 30
0.0
 70
   128
 71
    -6
 72
    11
 73
   -12
 74
    -4
  0
VERTEX
  5
549
330
52D
100
AcDbEntity
  8
M-EQPM
 62
   251
420
  4674641
100
AcDbFaceRecord
 10
0.0
 20
0.0
 30
0.0
 70
   128
 71
    -6
 72
     4
 73
     5
  0
VERTEX
  5
54A
330
52D
100
AcDbEntity
  8
M-EQPM
 62
   251
420
  4674641
100
AcDbFaceRecord
 10
0.0
 20
0.0
 30
0.0
 70
   128
 71
     2
 72
     3
 73
    -4
 74
   -12
  0
VERTEX
  5
54B
330
52D
100
AcDbEntity
  8
M-EQPM
 62
   251
420
  4674641
100
AcDbFaceRecord
 10
0.0
 20
0.0
 30
0.0
 70
   128
 71
    24
 72
     1
 73
    -2
 74
   -20
  0
VERTEX
  5
54C
330
52D
100
AcDbEntity
  8
M-EQPM
 62
   251
420
  4674641
100
AcDbFaceRecord
 10
0.0
 20
0.0
 30
0.0
 70
   128
 71
    -2
 72
   -12
 73
   -16
 74
   -20
  0
VERTEX
  5
54D
330
52D
100
AcDbEntity
  8
M-EQPM
 62
   251
420
  4674641
100
AcDbFaceRecord
 10
0.0
 20
0.0
 30
0.0
 70
   128
 71
   -16
 72
    13
 73
    14
 74
    15
  0
VERTEX
  5
54E
330
52D
100
AcDbEntity
  8
M-EQPM
 62
   251
420
  4674641
100
AcDbFaceRecord
 10
0.0
 20
0.0
 30
0.0
 70
   128
 71
    16
 72
    17
 73
   -18
 74
   -20
  0
VERTEX
  5
54F
330
52D
100
AcDbEntity
  8
M-EQPM
 62
   251
420
  4674641
100
AcDbFaceRecord
 10
0.0
 20
0.0
 30
0.0
 70
   128
 71
    22
 72
    23
 73
   -24
 74
    21
  0
VERTEX
  5
550
330
52D
100
AcDbEntity
  8
M-EQPM
 62
   251
420
  4674641
100
AcDbFaceRecord
 10
0.0
 20
0.0
 30
0.0
 70
   128
 71
   -24
 72
    20
 73
   -21
  0
VERTEX
  5
551
330
52D
100
AcDbEntity
  8
M-EQPM
 62
   251
420
  4674641
100
AcDbFaceRecord
 10
0.0
 20
0.0
 30
0.0
 70
   128
 71
    18
 72
    19
 73
   -20
  0
VERTEX
  5
552
330
52D
100
AcDbEntity
  8
M-EQPM
 62
   251
420
  4674641
100
AcDbFaceRecord
 10
0.0
 20
0.0
 30
0.0
 70
   128
 71
   -16
 72
    12
 73
   -13
  0
SEQEND
  5
553
330
52D
100
AcDbEntity
  8
M-EQPM
 62
   251
420
  4674641
  0
POLYLINE
  5
554
330
70
100
AcDbEntity
  8
M-EQPM
 62
   251
420
  4674641
100
AcDbPolyFaceMesh
 66
     1
 10
0.0
 20
0.0
 30
0.0
 70
    64
 71
    26
 72
    12
1001
REVIT
1002
{
1070
     1
1000
30740
1002
}
1002
{
1070
     4
1000
3251
1002
}
1002
{
1070
     2
1000
-2001140
1002
}
1002
{
1070
     3
1000
11945
1002
}
  0
VERTEX
  5
555
330
554
100
AcDbEntity
  8
M-EQPM
 62
   251
420
  4674641
100
AcDbVertex
100
AcDbPolyFaceMeshVertex
 10
-62.50000047683716
 20
-613.0000104904175
 30
143.0000014543533
 70
   192
  0
VERTEX
  5
556
330
554
100
AcDbEntity
  8
M-EQPM
 62
   251
420
  4674641
100
AcDbVertex
100
AcDbPolyFaceMeshVertex
 10
-60.37036575078964
 20
-613.0000104904175
 30
159.1761852264404
 70
   192
  0
VERTEX
  5
557
330
554
100
AcDbEntity
  8
M-EQPM
 62
   251
420
  4674641
100
AcDbVertex
100
AcDbPolyFaceMeshVertex
 10
-54.1265880703926
 20
-613.0000104904175
 30
174.249992609024
 70
   192
  0
VERTEX
  5
558
330
554
100
AcDbEntity
  8
M-EQPM
 62
   251
420
  4674641
100
AcDbVertex
100
AcDbPolyFaceMeshVertex
 10
-44.19417289495468
 20
-613.0000104904175
 30
187.1941698074341
 70
   192
  0
VERTEX
  5
559
330
554
100
AcDbEntity
  8
M-EQPM
 62
   251
420
  4674641
100
AcDbVertex
100
AcDbPolyFaceMeshVertex
 10
-31.25000023841858
 20
-613.0000104904175
 30
197.1265940666198
 70
   192
  0
VERTEX
  5
55A
330
554
100
AcDbEntity
  8
M-EQPM
 62
   251
420
  4674641
100
AcDbVertex
100
AcDbPolyFaceMeshVertex
 10
-16.17619058489799
 20
-613.0000104904175
 30
203.3703626632691
 70
   192
  0
VERTEX
  5
55B
330
554
100
AcDbEntity
  8
M-EQPM
 62
   251
420
  4674641
100
AcDbVertex
100
AcDbPolyFaceMeshVertex
 10
0.0000000000009473
 20
-613.0000104904175
 30
205.4999928474426
 70
   192
  0
VERTEX
  5
55C
330
554
100
AcDbEntity
  8
M-EQPM
 62
   251
420
  4674641
100
AcDbVertex
100
AcDbPolyFaceMeshVertex
 10
16.17619058489799
 20
-613.0000104904175
 30
203.3703626632691
 70
   192
  0
VERTEX
  5
55D
330
554
100
AcDbEntity
  8
M-EQPM
 62
   251
420
  4674641
100
AcDbVertex
100
AcDbPolyFaceMeshVertex
 10
31.25000023841858
 20
-613.0000104904175
 30
197.1265940666198
 70
   192
  0
VERTEX
  5
55E
330
554
100
AcDbEntity
  8
M-EQPM
 62
   251
420
  4674641
100
AcDbVertex
100
AcDbPolyFaceMeshVertex
 10
44.19417289495468
 20
-613.0000104904175
 30
187.1941698074341
 70
   192
  0
VERTEX
  5
55F
330
554
100
AcDbEntity
  8
M-EQPM
 62
   251
420
  4674641
100
AcDbVertex
100
AcDbPolyFaceMeshVertex
 10
54.1265880703926
 20
-613.0000104904175
 30
174.249992609024
 70
   192
  0
VERTEX
  5
560
330
554
100
AcDbEntity
  8
M-EQPM
 62
   251
420
  4674641
100
AcDbVertex
100
AcDbPolyFaceMeshVertex
 10
60.37036575078964
 20
-613.0000104904175
 30
159.1761852264404
 70
   192
  0
VERTEX
  5
561
330
554
100
AcDbEntity
  8
M-EQPM
 62
   251
420
  4674641
100
AcDbVertex
100
AcDbPolyFaceMeshVertex
 10
62.50000047683716
 20
-613.0000104904175
 30
143.0000014543533
 70
   192
  0
VERTEX
  5
562
330
554
100
AcDbEntity
  8
M-EQPM
 62
   251
420
  4674641
100
AcDbVertex
100
AcDbPolyFaceMeshVertex
 10
62.50000047683716
 20
-570.9999941825866
 30
143.0000014543533
 70
   192
  0
VERTEX
  5
563
330
554
100
AcDbEntity
  8
M-EQPM
 62
   251
420
  4674641
100
AcDbVertex
100
AcDbPolyFaceMeshVertex
 10
60.37036575078964
 20
-570.9999941825866
 30
159.1761852264404
 70
   192
  0
VERTEX
  5
564
330
554
100
AcDbEntity
  8
M-EQPM
 62
   251
420
  4674641
100
AcDbVertex
100
AcDbPolyFaceMeshVertex
 10
54.1265880703926
 20
-570.9999941825866
 30
174.249992609024
 70
   192
  0
VERTEX
  5
565
330
554
100
AcDbEntity
  8
M-EQPM
 62
   251
420
  4674641
100
AcDbVertex
100
AcDbPolyFaceMeshVertex
 10
44.19417289495468
 20
-570.9999941825866
 30
187.1941698074341
 70
   192
  0
VERTEX
  5
566
330
554
100
AcDbEntity
  8
M-EQPM
 62
   251
420
  4674641
100
AcDbVertex
100
AcDbPolyFaceMeshVertex
 10
31.25000023841858
 20
-570.9999941825866
 30
197.1265940666198
 70
   192
  0
VERTEX
  5
567
330
554
100
AcDbEntity
  8
M-EQPM
 62
   251
420
  4674641
100
AcDbVertex
100
AcDbPolyFaceMeshVertex
 10
16.17619058489799
 20
-570.9999941825866
 30
203.3703626632691
 70
   192
  0
VERTEX
  5
568
330
554
100
AcDbEntity
  8
M-EQPM
 62
   251
420
  4674641
100
AcDbVertex
100
AcDbPolyFaceMeshVertex
 10
0.0000000000009473
 20
-570.9999941825866
 30
205.4999928474426
 70
   192
  0
VERTEX
  5
569
330
554
100
AcDbEntity
  8
M-EQPM
 62
   251
420
  4674641
100
AcDbVertex
100
AcDbPolyFaceMeshVertex
 10
-16.17619058489799
 20
-570.9999941825866
 30
203.3703626632691
 70
   192
  0
VERTEX
  5
56A
330
554
100
AcDbEntity
  8
M-EQPM
 62
   251
420
  4674641
100
AcDbVertex
100
AcDbPolyFaceMeshVertex
 10
-31.25000023841858
 20
-570.9999941825866
 30
197.1265940666198
 70
   192
  0
VERTEX
  5
56B
330
554
100
AcDbEntity
  8
M-EQPM
 62
   251
420
  4674641
100
AcDbVertex
100
AcDbPolyFaceMeshVertex
 10
-44.19417289495468
 20
-570.9999941825866
 30
187.1941698074341
 70
   192
  0
VERTEX
  5
56C
330
554
100
AcDbEntity
  8
M-EQPM
 62
   251
420
  4674641
100
AcDbVertex
100
AcDbPolyFaceMeshVertex
 10
-54.1265880703926
 20
-570.9999941825866
 30
174.249992609024
 70
   192
  0
VERTEX
  5
56D
330
554
100
AcDbEntity
  8
M-EQPM
 62
   251
420
  4674641
100
AcDbVertex
100
AcDbPolyFaceMeshVertex
 10
-60.37036575078964
 20
-570.9999941825866
 30
159.1761852264404
 70
   192
  0
VERTEX
  5
56E
330
554
100
AcDbEntity
  8
M-EQPM
 62
   251
420
  4674641
100
AcDbVertex
100
AcDbPolyFaceMeshVertex
 10
-62.50000047683716
 20
-570.9999941825866
 30
143.0000014543533
 70
   192
  0
VERTEX
  5
56F
330
554
100
AcDbEntity
  8
M-EQPM
 62
   251
420
  4674641
100
AcDbFaceRecord
 10
0.0
 20
0.0
 30
0.0
 70
   128
 71
    14
 72
   -15
 73
    12
 74
    13
  0
VERTEX
  5
570
330
554
100
AcDbEntity
  8
M-EQPM
 62
   251
420
  4674641
100
AcDbFaceRecord
 10
0.0
 20
0.0
 30
0.0
 70
   128
 71
    15
 72
   -16
 73
    11
 74
   -12
  0
VERTEX
  5
571
330
554
100
AcDbEntity
  8
M-EQPM
 62
   251
420
  4674641
100
AcDbFaceRecord
 10
0.0
 20
0.0
 30
0.0
 70
   128
 71
    17
 72
   -18
 73
     9
 74
   -10
  0
VERTEX
  5
572
330
554
100
AcDbEntity
  8
M-EQPM
 62
   251
420
  4674641
100
AcDbFaceRecord
 10
0.0
 20
0.0
 30
0.0
 70
   128
 71
    16
 72
   -17
 73
    10
 74
   -11
  0
VERTEX
  5
573
330
554
100
AcDbEntity
  8
M-EQPM
 62
   251
420
  4674641
100
AcDbFaceRecord
 10
0.0
 20
0.0
 30
0.0
 70
   128
 71
    18
 72
   -19
 73
     8
 74
    -9
  0
VERTEX
  5
574
330
554
100
AcDbEntity
  8
M-EQPM
 62
   251
420
  4674641
100
AcDbFaceRecord
 10
0.0
 20
0.0
 30
0.0
 70
   128
 71
     7
 72
    -8
 73
    19
 74
   -20
  0
VERTEX
  5
575
330
554
100
AcDbEntity
  8
M-EQPM
 62
   251
420
  4674641
100
AcDbFaceRecord
 10
0.0
 20
0.0
 30
0.0
 70
   128
 71
    20
 72
   -21
 73
     6
 74
    -7
  0
VERTEX
  5
576
330
554
100
AcDbEntity
  8
M-EQPM
 62
   251
420
  4674641
100
AcDbFaceRecord
 10
0.0
 20
0.0
 30
0.0
 70
   128
 71
    21
 72
   -22
 73
     5
 74
    -6
  0
VERTEX
  5
577
330
554
100
AcDbEntity
  8
M-EQPM
 62
   251
420
  4674641
100
AcDbFaceRecord
 10
0.0
 20
0.0
 30
0.0
 70
   128
 71
    -3
 72
    24
 73
   -25
 74
     2
  0
VERTEX
  5
578
330
554
100
AcDbEntity
  8
M-EQPM
 62
   251
420
  4674641
100
AcDbFaceRecord
 10
0.0
 20
0.0
 30
0.0
 70
   128
 71
    -2
 72
    25
 73
    26
 74
     1
  0
VERTEX
  5
579
330
554
100
AcDbEntity
  8
M-EQPM
 62
   251
420
  4674641
100
AcDbFaceRecord
 10
0.0
 20
0.0
 30
0.0
 70
   128
 71
    -5
 72
    22
 73
   -23
 74
     4
  0
VERTEX
  5
57A
330
554
100
AcDbEntity
  8
M-EQPM
 62
   251
420
  4674641
100
AcDbFaceRecord
 10
0.0
 20
0.0
 30
0.0
 70
   128
 71
    -4
 72
    23
 73
   -24
 74
     3
  0
SEQEND
  5
57B
330
554
100
AcDbEntity
  8
M-EQPM
 62
   251
420
  4674641
  0
POLYLINE
  5
57C
330
70
100
AcDbEntity
  8
M-EQPM
 62
   251
420
  4674641
100
AcDbPolyFaceMesh
 66
     1
 10
0.0
 20
0.0
 30
0.0
 70
    64
 71
    26
 72
    12
1001
REVIT
1002
{
1070
     1
1000
30740
1002
}
1002
{
1070
     4
1000
3251
1002
}
1002
{
1070
     2
1000
-2001140
1002
}
1002
{
1070
     3
1000
11945
1002
}
  0
VERTEX
  5
57D
330
57C
100
AcDbEntity
  8
M-EQPM
 62
   251
420
  4674641
100
AcDbVertex
100
AcDbPolyFaceMeshVertex
 10
62.50000047683716
 20
-613.0000104904175
 30
143.0000014543533
 70
   192
  0
VERTEX
  5
57E
330
57C
100
AcDbEntity
  8
M-EQPM
 62
   251
420
  4674641
100
AcDbVertex
100
AcDbPolyFaceMeshVertex
 10
60.37036575078964
 20
-613.0000104904175
 30
126.8238085985184
 70
   192
  0
VERTEX
  5
57F
330
57C
100
AcDbEntity
  8
M-EQPM
 62
   251
420
  4674641
100
AcDbVertex
100
AcDbPolyFaceMeshVertex
 10
54.1265880703926
 20
-613.0000104904175
 30
111.7500012159347
 70
   192
  0
VERTEX
  5
580
330
57C
100
AcDbEntity
  8
M-EQPM
 62
   251
420
  4674641
100
AcDbVertex
100
AcDbPolyFaceMeshVertex
 10
44.19417289495468
 20
-613.0000104904175
 30
98.80582401752473
 70
   192
  0
VERTEX
  5
581
330
57C
100
AcDbEntity
  8
M-EQPM
 62
   251
420
  4674641
100
AcDbVertex
100
AcDbPolyFaceMeshVertex
 10
31.25000023841858
 20
-613.0000104904175
 30
88.87340884208679
 70
   192
  0
VERTEX
  5
582
330
57C
100
AcDbEntity
  8
M-EQPM
 62
   251
420
  4674641
100
AcDbVertex
100
AcDbPolyFaceMeshVertex
 10
16.17619058489799
 20
-613.0000104904175
 30
82.62964024543762
 70
   192
  0
VERTEX
  5
583
330
57C
100
AcDbEntity
  8
M-EQPM
 62
   251
420
  4674641
100
AcDbVertex
100
AcDbPolyFaceMeshVertex
 10
-0.0000000000006531
 20
-613.0000104904175
 30
80.50000097751619
 70
   192
  0
VERTEX
  5
584
330
57C
100
AcDbEntity
  8
M-EQPM
 62
   251
420
  4674641
100
AcDbVertex
100
AcDbPolyFaceMeshVertex
 10
-16.17619058489799
 20
-613.0000104904175
 30
82.62964024543762
 70
   192
  0
VERTEX
  5
585
330
57C
100
AcDbEntity
  8
M-EQPM
 62
   251
420
  4674641
100
AcDbVertex
100
AcDbPolyFaceMeshVertex
 10
-31.25000023841858
 20
-613.0000104904175
 30
88.87340884208679
 70
   192
  0
VERTEX
  5
586
330
57C
100
AcDbEntity
  8
M-EQPM
 62
   251
420
  4674641
100
AcDbVertex
100
AcDbPolyFaceMeshVertex
 10
-44.19417289495468
 20
-613.0000104904175
 30
98.80582401752473
 70
   192
  0
VERTEX
  5
587
330
57C
100
AcDbEntity
  8
M-EQPM
 62
   251
420
  4674641
100
AcDbVertex
100
AcDbPolyFaceMeshVertex
 10
-54.1265880703926
 20
-613.0000104904175
 30
111.7500012159347
 70
   192
  0
VERTEX
  5
588
330
57C
100
AcDbEntity
  8
M-EQPM
 62
   251
420
  4674641
100
AcDbVertex
100
AcDbPolyFaceMeshVertex
 10
-60.37036575078964
 20
-613.0000104904175
 30
126.8238085985184
 70
   192
  0
VERTEX
  5
589
330
57C
100
AcDbEntity
  8
M-EQPM
 62
   251
420
  4674641
100
AcDbVertex
100
AcDbPolyFaceMeshVertex
 10
-62.50000047683716
 20
-613.0000104904175
 30
143.0000014543533
 70
   192
  0
VERTEX
  5
58A
330
57C
100
AcDbEntity
  8
M-EQPM
 62
   251
420
  4674641
100
AcDbVertex
100
AcDbPolyFaceMeshVertex
 10
-62.50000047683716
 20
-570.9999941825866
 30
143.0000014543533
 70
   192
  0
VERTEX
  5
58B
330
57C
100
AcDbEntity
  8
M-EQPM
 62
   251
420
  4674641
100
AcDbVertex
100
AcDbPolyFaceMeshVertex
 10
-60.37036575078964
 20
-570.9999941825866
 30
126.8238085985184
 70
   192
  0
VERTEX
  5
58C
330
57C
100
AcDbEntity
  8
M-EQPM
 62
   251
420
  4674641
100
AcDbVertex
100
AcDbPolyFaceMeshVertex
 10
-54.1265880703926
 20
-570.9999941825866
 30
111.7500012159347
 70
   192
  0
VERTEX
  5
58D
330
57C
100
AcDbEntity
  8
M-EQPM
 62
   251
420
  4674641
100
AcDbVertex
100
AcDbPolyFaceMeshVertex
 10
-44.19417289495468
 20
-570.9999941825866
 30
98.80582401752473
 70
   192
  0
VERTEX
  5
58E
330
57C
100
AcDbEntity
  8
M-EQPM
 62
   251
420
  4674641
100
AcDbVertex
100
AcDbPolyFaceMeshVertex
 10
-31.25000023841858
 20
-570.9999941825866
 30
88.87340884208679
 70
   192
  0
VERTEX
  5
58F
330
57C
100
AcDbEntity
  8
M-EQPM
 62
   251
420
  4674641
100
AcDbVertex
100
AcDbPolyFaceMeshVertex
 10
-16.17619058489799
 20
-570.9999941825866
 30
82.62964024543762
 70
   192
  0
VERTEX
  5
590
330
57C
100
AcDbEntity
  8
M-EQPM
 62
   251
420
  4674641
100
AcDbVertex
100
AcDbPolyFaceMeshVertex
 10
-0.0000000000006531
 20
-570.9999941825866
 30
80.50000097751619
 70
   192
  0
VERTEX
  5
591
330
57C
100
AcDbEntity
  8
M-EQPM
 62
   251
420
  4674641
100
AcDbVertex
100
AcDbPolyFaceMeshVertex
 10
16.17619058489799
 20
-570.9999941825866
 30
82.62964024543762
 70
   192
  0
VERTEX
  5
592
330
57C
100
AcDbEntity
  8
M-EQPM
 62
   251
420
  4674641
100
AcDbVertex
100
AcDbPolyFaceMeshVertex
 10
31.25000023841858
 20
-570.9999941825866
 30
88.87340884208679
 70
   192
  0
VERTEX
  5
593
330
57C
100
AcDbEntity
  8
M-EQPM
 62
   251
420
  4674641
100
AcDbVertex
100
AcDbPolyFaceMeshVertex
 10
44.19417289495468
 20
-570.9999941825866
 30
98.80582401752473
 70
   192
  0
VERTEX
  5
594
330
57C
100
AcDbEntity
  8
M-EQPM
 62
   251
420
  4674641
100
AcDbVertex
100
AcDbPolyFaceMeshVertex
 10
54.1265880703926
 20
-570.9999941825866
 30
111.7500012159347
 70
   192
  0
VERTEX
  5
595
330
57C
100
AcDbEntity
  8
M-EQPM
 62
   251
420
  4674641
100
AcDbVertex
100
AcDbPolyFaceMeshVertex
 10
60.37036575078964
 20
-570.9999941825866
 30
126.8238085985184
 70
   192
  0
VERTEX
  5
596
330
57C
100
AcDbEntity
  8
M-EQPM
 62
   251
420
  4674641
100
AcDbVertex
100
AcDbPolyFaceMeshVertex
 10
62.50000047683716
 20
-570.9999941825866
 30
143.0000014543533
 70
   192
  0
VERTEX
  5
597
330
57C
100
AcDbEntity
  8
M-EQPM
 62
   251
420
  4674641
100
AcDbFaceRecord
 10
0.0
 20
0.0
 30
0.0
 70
   128
 71
    14
 72
   -15
 73
    12
 74
    13
  0
VERTEX
  5
598
330
57C
100
AcDbEntity
  8
M-EQPM
 62
   251
420
  4674641
100
AcDbFaceRecord
 10
0.0
 20
0.0
 30
0.0
 70
   128
 71
    15
 72
   -16
 73
    11
 74
   -12
  0
VERTEX
  5
599
330
57C
100
AcDbEntity
  8
M-EQPM
 62
   251
420
  4674641
100
AcDbFaceRecord
 10
0.0
 20
0.0
 30
0.0
 70
   128
 71
    17
 72
   -18
 73
     9
 74
   -10
  0
VERTEX
  5
59A
330
57C
100
AcDbEntity
  8
M-EQPM
 62
   251
420
  4674641
100
AcDbFaceRecord
 10
0.0
 20
0.0
 30
0.0
 70
   128
 71
    16
 72
   -17
 73
    10
 74
   -11
  0
VERTEX
  5
59B
330
57C
100
AcDbEntity
  8
M-EQPM
 62
   251
420
  4674641
100
AcDbFaceRecord
 10
0.0
 20
0.0
 30
0.0
 70
   128
 71
    18
 72
   -19
 73
     8
 74
    -9
  0
VERTEX
  5
59C
330
57C
100
AcDbEntity
  8
M-EQPM
 62
   251
420
  4674641
100
AcDbFaceRecord
 10
0.0
 20
0.0
 30
0.0
 70
   128
 71
     7
 72
    -8
 73
    19
 74
   -20
  0
VERTEX
  5
59D
330
57C
100
AcDbEntity
  8
M-EQPM
 62
   251
420
  4674641
100
AcDbFaceRecord
 10
0.0
 20
0.0
 30
0.0
 70
   128
 71
    20
 72
   -21
 73
     6
 74
    -7
  0
VERTEX
  5
59E
330
57C
100
AcDbEntity
  8
M-EQPM
 62
   251
420
  4674641
100
AcDbFaceRecord
 10
0.0
 20
0.0
 30
0.0
 70
   128
 71
    21
 72
   -22
 73
     5
 74
    -6
  0
VERTEX
  5
59F
330
57C
100
AcDbEntity
  8
M-EQPM
 62
   251
420
  4674641
100
AcDbFaceRecord
 10
0.0
 20
0.0
 30
0.0
 70
   128
 71
    -2
 72
    25
 73
    26
 74
     1
  0
VERTEX
  5
5A0
330
57C
100
AcDbEntity
  8
M-EQPM
 62
   251
420
  4674641
100
AcDbFaceRecord
 10
0.0
 20
0.0
 30
0.0
 70
   128
 71
    22
 72
   -23
 73
     4
 74
    -5
  0
VERTEX
  5
5A1
330
57C
100
AcDbEntity
  8
M-EQPM
 62
   251
420
  4674641
100
AcDbFaceRecord
 10
0.0
 20
0.0
 30
0.0
 70
   128
 71
     2
 72
    -3
 73
    24
 74
   -25
  0
VERTEX
  5
5A2
330
57C
100
AcDbEntity
  8
M-EQPM
 62
   251
420
  4674641
100
AcDbFaceRecord
 10
0.0
 20
0.0
 30
0.0
 70
   128
 71
     3
 72
    -4
 73
    23
 74
   -24
  0
SEQEND
  5
5A3
330
57C
100
AcDbEntity
  8
M-EQPM
 62
   251
420
  4674641
  0
LINE
  5
5A6
330
70
100
AcDbEntity
  8
0
 62
    96
420
    32512
370
    30
100
AcDbLine
 10
-1063.554950886742
 20
-429.7678798864374
 30
262.0
 11
155.645049113258
 21
-429.7678798864374
 31
262.0
1001
REVIT
1002
{
1070
     1
1000
20199
1002
}
1002
{
1070
     2
1000
-2007000
1002
}
  0
LINE
  5
5A7
330
70
100
AcDbEntity
  8
0
 62
    96
420
    32512
370
    30
100
AcDbLine
 10
-453.954950886742
 20
-1039.367879886437
 30
262.0
 11
-453.954950886742
 21
179.8321201135625
 31
262.0
1001
REVIT
1002
{
1070
     1
1000
20199
1002
}
1002
{
1070
     2
1000
-2007000
1002
}
  0
CIRCLE
  5
5A8
330
70
100
AcDbEntity
  8
0
 62
    96
420
    32512
370
    30
100
AcDbCircle
 10
-453.954950886742
 20
-429.7678798864374
 30
262.0
 40
609.6
1001
REVIT
1002
{
1070
     1
1000
20199
1002
}
1002
{
1070
     2
1000
-2007000
1002
}
  0
CIRCLE
  5
5A9
330
70
100
AcDbEntity
  8
0
 62
    96
420
    32512
370
    30
100
AcDbCircle
 10
-419.0023468549796
 20
-440.1493123045261
 30
262.0
 40
609.6
1001
REVIT
1002
{
1070
     1
1000
20200
1002
}
1002
{
1070
     2
1000
-2007000
1002
}
  0
CIRCLE
  5
5AA
330
70
100
AcDbEntity
  8
0
 62
    96
420
    32512
370
    30
100
AcDbCircle
 10
-445.5118969922481
 20
-465.607920059199
 30
262.0
 40
609.6
1001
REVIT
1002
{
1070
     1
1000
20201
1002
}
1002
{
1070
     2
1000
-2007000
1002
}
  0
LINE
  5
5AB
330
70
100
AcDbEntity
  8
0
 62
    96
420
    32512
370
    30
100
AcDbLine
 10
62.50000000000007
 20
-571.0
 30
143.0000000000003
 11
-62.49999999999993
 21
-571.0
 31
143.0000000000008
1001
REVIT
1002
{
1070
     1
1000
33483
1002
}
1002
{
1070
     2
1000
-2007000
1002
}
  0
LINE
  5
5AC
330
70
100
AcDbEntity
  8
0
 62
    96
420
    32512
370
    30
100
AcDbLine
 10
0.0000000000002697
 20
-571.0
 30
205.5000000000006
 11
-0.0000000000001343
 21
-571.0
 31
80.50000000000059
1001
REVIT
1002
{
1070
     1
1000
33483
1002
}
1002
{
1070
     2
1000
-2007000
1002
}
  0
POLYLINE
  5
5AD
330
70
100
AcDbEntity
  8
0
 62
     5
420
      255
370
    30
100
AcDb3dPolyline
 66
     1
 10
0.0
 20
0.0
 30
0.0
 70
     8
1001
REVIT
1002
{
1070
     1
1000
33483
1002
}
1002
{
1070
     2
1000
-2007000
1002
}
  0
VERTEX
  5
5AE
330
5AD
100
AcDbEntity
  8
0
 62
     5
420
      255
370
    30
100
AcDbVertex
100
AcDb3dPolylineVertex
 10
0.0000000000000677
 20
-692.9199999999999
 30
143.0000000000006
 70
    32
  0
VERTEX
  5
5AF
330
5AD
100
AcDbEntity
  8
0
 62
     5
420
      255
370
    30
100
AcDbVertex
100
AcDb3dPolylineVertex
 10
1.768176031539095
 20
-674.6319999999999
 30
144.3196245702546
 70
    32
  0
VERTEX
  5
5B0
330
5AD
100
AcDbEntity
  8
0
 62
     5
420
      255
370
    30
100
AcDbVertex
100
AcDb3dPolylineVertex
 10
-1.768176031538959
 20
-674.6319999999999
 30
141.6803754297465
 70
    32
  0
VERTEX
  5
5B1
330
5AD
100
AcDbEntity
  8
0
 62
     5
420
      255
370
    30
100
AcDbVertex
100
AcDb3dPolylineVertex
 10
0.0000000000000677
 20
-692.9199999999999
 30
143.0000000000006
 70
    32
  0
SEQEND
  5
5B2
330
5AD
100
AcDbEntity
  8
0
 62
     5
420
      255
370
    30
  0
LINE
  5
5B3
330
70
100
AcDbEntity
  8
0
 62
     5
420
      255
370
    30
100
AcDbLine
 10
0.0000000000000677
 20
-571.0
 30
143.0000000000006
 11
0.0000000000000677
 21
-674.6319999999999
 31
143.0000000000006
1001
REVIT
1002
{
1070
     1
1000
33483
1002
}
1002
{
1070
     2
1000
-2007000
1002
}
  0
LINE
  5
5B4
330
70
100
AcDbEntity
  8
0
 62
     1
420
 16711680
370
    30
100
AcDbLine
 10
-48.02428800000019
 20
-571.0
 30
67.56428800000072
 11
-73.8957120000001
 21
-571.0
 31
93.43571200000079
1001
REVIT
1002
{
1070
     1
1000
33483
1002
}
1002
{
1070
     2
1000
-2007000
1002
}
  0
LINE
  5
5B5
330
70
100
AcDbEntity
  8
0
 62
     1
420
 16711680
370
    30
100
AcDbLine
 10
-12.19200000000014
 20
-571.0
 30
80.50000000000061
 11
-73.15200000000015
 21
-571.0
 31
80.5000000000008
1001
REVIT
1002
{
1070
     1
1000
33483
1002
}
1002
{
1070
     2
1000
-2007000
1002
}
  0
LINE
  5
5B6
330
70
100
AcDbEntity
  8
0
 62
     1
420
 16711680
370
    30
100
AcDbLine
 10
-60.95999999999974
 20
-571.0
 30
205.5000000000008
 11
-60.96000000000014
 21
-571.0
 31
80.50000000000077
1001
REVIT
1002
{
1070
     1
1000
33483
1002
}
1002
{
1070
     2
1000
-2007000
1002
}
  0
LINE
  5
5B7
330
70
100
AcDbEntity
  8
0
 62
     1
420
 16711680
370
    30
100
AcDbLine
 10
-48.02428799999978
 20
-571.0
 30
192.5642880000007
 11
-73.89571199999969
 21
-571.0
 31
218.4357120000008
1001
REVIT
1002
{
1070
     1
1000
33483
1002
}
1002
{
1070
     2
1000
-2007000
1002
}
  0
LINE
  5
5B8
330
70
100
AcDbEntity
  8
0
 62
     1
420
 16711680
370
    30
100
AcDbLine
 10
-12.19199999999973
 20
-571.0
 30
205.5000000000006
 11
-73.15199999999973
 21
-571.0
 31
205.5000000000008
1001
REVIT
1002
{
1070
     1
1000
33483
1002
}
1002
{
1070
     2
1000
-2007000
1002
}
  0
CIRCLE
  5
5B9
330
70
100
AcDbEntity
  8
0
 62
    96
420
    32512
370
    30
100
AcDbCircle
 10
0.0000000000000677
 20
143.0000000000006
 30
571.0
 40
62.5
210
0.0
220
-1.0
230
0.0
1001
REVIT
1002
{
1070
     1
1000
33483
1002
}
1002
{
1070
     2
1000
-2007000
1002
}
  0
MTEXT
  5
5BB
330
70
100
AcDbEntity
  8
0
 62
     5
420
      255
370
    30
100
AcDbMText
 10
-73.65724366137597
 20
-586.4265394764087
 30
104.4490172108951
 40
14.6304
 41
99.20583000086704
 46
0.0
 71
     2
 72
     1
  1
Diameter
  7
Arial
 11
0.1041907251020891
 21
0.345463597507818
 31
0.9326302566396059
 73
     2
 44
0.9417779076525876
 90
        3
 63
     9
421
 13158600
 45
1.25
441
        0
1001
REVIT
1002
{
1070
     1
1000
33483
1002
}
1002
{
1070
     2
1000
-2007000
1002
}
  0
POLYLINE
  5
5BC
330
70
100
AcDbEntity
  8
0
 62
     5
420
      255
370
    30
100
AcDb3dPolyline
 66
     1
 10
0.0
 20
0.0
 30
0.0
 70
     8
1001
REVIT
1002
{
1070
     1
1000
33530
1002
}
1002
{
1070
     2
1000
-2007000
1002
}
  0
VERTEX
  5
5BD
330
5BC
100
AcDbEntity
  8
0
 62
     5
420
      255
370
    30
100
AcDbVertex
100
AcDb3dPolylineVertex
 10
706.9200000000003
 20
-369.0000000000001
 30
142.9999999999996
 70
    32
  0
VERTEX
  5
5BE
330
5BC
100
AcDbEntity
  8
0
 62
     5
420
      255
370
    30
100
AcDbVertex
100
AcDb3dPolylineVertex
 10
688.6320000000003
 20
-367.231823968461
 30
147.3754590531254
 70
    32
  0
VERTEX
  5
5BF
330
5BC
100
AcDbEntity
  8
0
 62
     5
420
      255
370
    30
100
AcDbVertex
100
AcDb3dPolylineVertex
 10
688.6320000000003
 20
-370.7681760315391
 30
138.6245409468741
 70
    32
  0
VERTEX
  5
5C0
330
5BC
100
AcDbEntity
  8
0
 62
     5
420
      255
370
    30
100
AcDbVertex
100
AcDb3dPolylineVertex
 10
706.9200000000003
 20
-369.0000000000001
 30
142.9999999999996
 70
    32
  0
SEQEND
  5
5C1
330
5BC
100
AcDbEntity
  8
0
 62
     5
420
      255
370
    30
  0
LINE
  5
5C2
330
70
100
AcDbEntity
  8
0
 62
     5
420
      255
370
    30
100
AcDbLine
 10
585.0000000000004
 20
-369.0000000000001
 30
143.0000000000001
 11
688.6320000000003
 21
-369.0000000000001
 31
142.9999999999997
1001
REVIT
1002
{
1070
     1
1000
33530
1002
}
1002
{
1070
     2
1000
-2007000
1002
}
  0
LINE
  5
5C3
330
70
100
AcDbEntity
  8
0
 62
     1
420
 16711680
370
    30
100
AcDbLine
 10
585.0000000000006
 20
-320.975712
 30
218.4357120000001
 11
585.0000000000005
 21
-295.1042880000001
 31
192.564288
1001
REVIT
1002
{
1070
     1
1000
33530
1002
}
1002
{
1070
     2
1000
-2007000
1002
}
  0
LINE
  5
5C4
330
70
100
AcDbEntity
  8
0
 62
     1
420
 16711680
370
    30
100
AcDbLine
 10
585.0000000000005
 20
-356.8080000000001
 30
205.5000000000001
 11
585.0000000000005
 21
-295.848
 31
205.5000000000001
1001
REVIT
1002
{
1070
     1
1000
33530
1002
}
1002
{
1070
     2
1000
-2007000
1002
}
  0
LINE
  5
5C5
330
70
100
AcDbEntity
  8
0
 62
     1
420
 16711680
370
    30
100
AcDbLine
 10
585.0000000000002
 20
-308.04
 30
80.50000000000007
 11
585.0000000000005
 21
-308.04
 31
205.5000000000001
1001
REVIT
1002
{
1070
     1
1000
33530
1002
}
1002
{
1070
     2
1000
-2007000
1002
}
  0
LINE
  5
5C6
330
70
100
AcDbEntity
  8
0
 62
     1
420
 16711680
370
    30
100
AcDbLine
 10
585.0000000000002
 20
-320.975712
 30
93.43571200000008
 11
585.0000000000001
 21
-295.1042880000001
 31
67.56428800000008
1001
REVIT
1002
{
1070
     1
1000
33530
1002
}
1002
{
1070
     2
1000
-2007000
1002
}
  0
LINE
  5
5C7
330
70
100
AcDbEntity
  8
0
 62
     1
420
 16711680
370
    30
100
AcDbLine
 10
585.0000000000002
 20
-356.8080000000001
 30
80.50000000000007
 11
585.0000000000002
 21
-295.848
 31
80.50000000000007
1001
REVIT
1002
{
1070
     1
1000
33530
1002
}
1002
{
1070
     2
1000
-2007000
1002
}
  0
CIRCLE
  5
5C8
330
70
100
AcDbEntity
  8
0
 62
    96
420
    32512
370
    30
100
AcDbCircle
 10
-369.0000000000001
 20
143.000000000002
 30
585.0
 40
62.5
210
1.0
220
0.0
230
-0.0000000000000033
1001
REVIT
1002
{
1070
     1
1000
33530
1002
}
1002
{
1070
     2
1000
-2007000
1002
}
  0
MTEXT
  5
5C9
330
70
100
AcDbEntity
  8
0
 62
     5
420
      255
370
    30
100
AcDbMText
 10
571.1222266934535
 20
-276.0835882329814
 30
181.5509827891058
 40
14.6304
 41
99.20583000086704
 46
0.0
 71
     2
 72
     1
  1
Diameter
  7
Arial
 11
0.1041907251020891
 21
0.345463597507818
 31
0.9326302566396059
 73
     2
 44
0.9417779076525876
 90
        3
 63
     9
421
 13158600
 45
1.25
441
        0
1001
REVIT
1002
{
1070
     1
1000
33530
1002
}
1002
{
1070
     2
1000
-2007000
1002
}
  0
POLYLINE
  5
5CA
330
70
100
AcDbEntity
  8
0
 62
     5
420
      255
370
    30
100
AcDb3dPolyline
 66
     1
 10
0.0
 20
0.0
 30
0.0
 70
     8
1001
REVIT
1002
{
1070
     1
1000
33577
1002
}
1002
{
1070
     2
1000
-2007000
1002
}
  0
VERTEX
  5
5CB
330
5CA
100
AcDbEntity
  8
0
 62
     5
420
      255
370
    30
100
AcDbVertex
100
AcDb3dPolylineVertex
 10
-479.9999999999998
 20
121.92
 30
104.0000000000047
 70
    32
  0
VERTEX
  5
5CC
330
5CA
100
AcDbEntity
  8
0
 62
     5
420
      255
370
    30
100
AcDbVertex
100
AcDb3dPolylineVertex
 10
-481.7681760315389
 20
103.632
 30
102.6803754297507
 70
    32
  0
VERTEX
  5
5CD
330
5CA
100
AcDbEntity
  8
0
 62
     5
420
      255
370
    30
100
AcDbVertex
100
AcDb3dPolylineVertex
 10
-478.2318239684609
 20
103.632
 30
105.3196245702588
 70
    32
  0
VERTEX
  5
5CE
330
5CA
100
AcDbEntity
  8
0
 62
     5
420
      255
370
    30
100
AcDbVertex
100
AcDb3dPolylineVertex
 10
-479.9999999999998
 20
121.92
 30
104.0000000000047
 70
    32
  0
SEQEND
  5
5CF
330
5CA
100
AcDbEntity
  8
0
 62
     5
420
      255
370
    30
  0
LINE
  5
5D0
330
70
100
AcDbEntity
  8
0
 62
     5
420
      255
370
    30
100
AcDbLine
 10
-479.9999999999998
 20
0.0
 30
104.0000000000047
 11
-479.9999999999998
 21
103.632
 31
104.0000000000047
1001
REVIT
1002
{
1070
     1
1000
33577
1002
}
1002
{
1070
     2
1000
-2007000
1002
}
  0
LINE
  5
5D1
330
70
100
AcDbEntity
  8
0
 62
     1
420
 16711680
370
    30
100
AcDbLine
 10
-528.0242879999998
 20
0.0
 30
179.4357120000047
 11
-553.8957119999999
 21
0.0
 31
153.5642880000047
1001
REVIT
1002
{
1070
     1
1000
33577
1002
}
1002
{
1070
     2
1000
-2007000
1002
}
  0
LINE
  5
5D2
330
70
100
AcDbEntity
  8
0
 62
     1
420
 16711680
370
    30
100
AcDbLine
 10
-492.1919999999999
 20
0.0
 30
166.5000000000047
 11
-553.1519999999999
 21
0.0
 31
166.5000000000047
1001
REVIT
1002
{
1070
     1
1000
33577
1002
}
1002
{
1070
     2
1000
-2007000
1002
}
  0
LINE
  5
5D3
330
70
100
AcDbEntity
  8
0
 62
     1
420
 16711680
370
    30
100
AcDbLine
 10
-540.9599999999999
 20
0.0
 30
41.50000000000474
 11
-540.9599999999999
 21
0.0
 31
166.5000000000047
1001
REVIT
1002
{
1070
     1
1000
33577
1002
}
1002
{
1070
     2
1000
-2007000
1002
}
  0
LINE
  5
5D4
330
70
100
AcDbEntity
  8
0
 62
     1
420
 16711680
370
    30
100
AcDbLine
 10
-528.0242879999998
 20
0.0
 30
54.43571200000475
 11
-553.8957119999999
 21
0.0
 31
28.56428800000474
1001
REVIT
1002
{
1070
     1
1000
33577
1002
}
1002
{
1070
     2
1000
-2007000
1002
}
  0
LINE
  5
5D5
330
70
100
AcDbEntity
  8
0
 62
     1
420
 16711680
370
    30
100
AcDbLine
 10
-492.1919999999999
 20
0.0
 30
41.50000000000474
 11
-553.1519999999999
 21
0.0
 31
41.50000000000474
1001
REVIT
1002
{
1070
     1
1000
33577
1002
}
1002
{
1070
     2
1000
-2007000
1002
}
  0
CIRCLE
  5
5D6
330
70
100
AcDbEntity
  8
0
 62
    96
420
    32512
370
    30
100
AcDbCircle
 10
479.9999999999998
 20
104.0000000000047
 30
0.0
 40
62.5
210
0.0
220
1.0
230
0.0
1001
REVIT
1002
{
1070
     1
1000
33577
1002
}
1002
{
1070
     2
1000
-2007000
1002
}
  0
MTEXT
  5
5D7
330
70
100
AcDbEntity
  8
0
 62
     5
420
      255
370
    30
100
AcDbMText
 10
-567.0297733065468
 20
19.76441176701861
 30
142.5509827891104
 40
14.6304
 41
99.20583000086704
 46
0.0
 71
     2
 72
     1
  1
Diameter
  7
Arial
 11
0.1041907251020891
 21
0.345463597507818
 31
0.9326302566396059
 73
     2
 44
0.9417779076525876
 90
        3
 63
     9
421
 13158600
 45
1.25
441
        0
1001
REVIT
1002
{
1070
     1
1000
33577
1002
}
1002
{
1070
     2
1000
-2007000
1002
}
  0
POLYLINE
  5
5D8
330
70
100
AcDbEntity
  8
0
 62
     5
420
      255
370
    30
100
AcDb3dPolyline
 66
     1
 10
0.0
 20
0.0
 30
0.0
 70
     8
1001
REVIT
1002
{
1070
     1
1000
33619
1002
}
1002
{
1070
     2
1000
-2007000
1002
}
  0
VERTEX
  5
5D9
330
5D8
100
AcDbEntity
  8
0
 62
     5
420
      255
370
    30
100
AcDbVertex
100
AcDb3dPolylineVertex
 10
479.9999999999998
 20
121.92
 30
104.0000000000047
 70
    32
  0
VERTEX
  5
5DA
330
5D8
100
AcDbEntity
  8
0
 62
     5
420
      255
370
    30
100
AcDbVertex
100
AcDb3dPolylineVertex
 10
478.2318239684608
 20
103.632
 30
102.6803754297507
 70
    32
  0
VERTEX
  5
5DB
330
5D8
100
AcDbEntity
  8
0
 62
     5
420
      255
370
    30
100
AcDbVertex
100
AcDb3dPolylineVertex
 10
481.7681760315388
 20
103.632
 30
105.3196245702588
 70
    32
  0
VERTEX
  5
5DC
330
5D8
100
AcDbEntity
  8
0
 62
     5
420
      255
370
    30
100
AcDbVertex
100
AcDb3dPolylineVertex
 10
479.9999999999998
 20
121.92
 30
104.0000000000047
 70
    32
  0
SEQEND
  5
5DD
330
5D8
100
AcDbEntity
  8
0
 62
     5
420
      255
370
    30
  0
LINE
  5
5DE
330
70
100
AcDbEntity
  8
0
 62
     5
420
      255
370
    30
100
AcDbLine
 10
479.9999999999998
 20
0.0
 30
104.0000000000047
 11
479.9999999999998
 21
103.632
 31
104.0000000000047
1001
REVIT
1002
{
1070
     1
1000
33619
1002
}
1002
{
1070
     2
1000
-2007000
1002
}
  0
LINE
  5
5DF
330
70
100
AcDbEntity
  8
0
 62
     1
420
 16711680
370
    30
100
AcDbLine
 10
431.9757119999998
 20
0.0
 30
179.4357120000047
 11
406.1042879999998
 21
0.0
 31
153.5642880000047
1001
REVIT
1002
{
1070
     1
1000
33619
1002
}
1002
{
1070
     2
1000
-2007000
1002
}
  0
LINE
  5
5E0
330
70
100
AcDbEntity
  8
0
 62
     1
420
 16711680
370
    30
100
AcDbLine
 10
467.8079999999998
 20
0.0
 30
166.5000000000047
 11
406.8479999999998
 21
0.0
 31
166.5000000000047
1001
REVIT
1002
{
1070
     1
1000
33619
1002
}
1002
{
1070
     2
1000
-2007000
1002
}
  0
LINE
  5
5E1
330
70
100
AcDbEntity
  8
0
 62
     1
420
 16711680
370
    30
100
AcDbLine
 10
419.0399999999998
 20
0.0
 30
41.50000000000474
 11
419.0399999999998
 21
0.0
 31
166.5000000000047
1001
REVIT
1002
{
1070
     1
1000
33619
1002
}
1002
{
1070
     2
1000
-2007000
1002
}
  0
LINE
  5
5E2
330
70
100
AcDbEntity
  8
0
 62
     1
420
 16711680
370
    30
100
AcDbLine
 10
431.9757119999998
 20
0.0
 30
54.43571200000475
 11
406.1042879999998
 21
0.0
 31
28.56428800000474
1001
REVIT
1002
{
1070
     1
1000
33619
1002
}
1002
{
1070
     2
1000
-2007000
1002
}
  0
LINE
  5
5E3
330
70
100
AcDbEntity
  8
0
 62
     1
420
 16711680
370
    30
100
AcDbLine
 10
467.8079999999998
 20
0.0
 30
41.50000000000474
 11
406.8479999999998
 21
0.0
 31
41.50000000000474
1001
REVIT
1002
{
1070
     1
1000
33619
1002
}
1002
{
1070
     2
1000
-2007000
1002
}
  0
CIRCLE
  5
5E4
330
70
100
AcDbEntity
  8
0
 62
    96
420
    32512
370
    30
100
AcDbCircle
 10
-479.9999999999998
 20
104.0000000000047
 30
0.0
 40
62.5
210
0.0
220
1.0
230
0.0
1001
REVIT
1002
{
1070
     1
1000
33619
1002
}
1002
{
1070
     2
1000
-2007000
1002
}
  0
MTEXT
  5
5E5
330
70
100
AcDbEntity
  8
0
 62
     5
420
      255
370
    30
100
AcDbMText
 10
392.970226693453
 20
19.76441176701861
 30
142.5509827891104
 40
14.6304
 41
99.20583000086704
 46
0.0
 71
     2
 72
     1
  1
Diameter
  7
Arial
 11
0.1041907251020891
 21
0.345463597507818
 31
0.9326302566396059
 73
     2
 44
0.9417779076525876
 90
        3
 63
     9
421
 13158600
 45
1.25
441
        0
1001
REVIT
1002
{
1070
     1
1000
33619
1002
}
1002
{
1070
     2
1000
-2007000
1002
}
  0
ENDSEC
  0
SECTION
  2
OBJECTS
  0
DICTIONARY
  5
C
330
0
100
AcDbDictionary
281
     1
  3
ACAD_CIP_PREVIOUS_PRODUCT_INFO
350
79
  3
ACAD_COLOR
350
63
  3
ACAD_DETAILVIEWSTYLE
350
6A
  3
ACAD_GROUP
350
D
  3
ACAD_IMAGE_VARS
350
7A
  3
ACAD_LAYOUT
350
62
  3
ACAD_MATERIAL
350
10
  3
ACAD_MLEADERSTYLE
350
66
  3
ACAD_MLINESTYLE
350
5F
  3
ACAD_PLOTSETTINGS
350
61
  3
ACAD_PLOTSTYLENAME
350
E
  3
ACAD_SCALELIST
350
42
  3
ACAD_SECTIONVIEWSTYLE
350
68
  3
ACAD_TABLESTYLE
350
64
  3
ACAD_VISUALSTYLE
350
29
  3
ACDB_RECOMPOSE_DATA
350
5F6
  3
AcDbVariableDictionary
350
7B
  3
REVIT_DICTIONARY
350
5EF
  0
XRECORD
  5
79
102
{ACAD_REACTORS
330
C
102
}
330
C
100
AcDbXrecord
280
     1
300
RVT
300
2019
300
RVT2019
  0
DICTIONARY
  5
63
102
{ACAD_REACTORS
330
C
102
}
330
C
100
AcDbDictionary
281
     1
  0
DICTIONARY
  5
6A
102
{ACAD_REACTORS
330
C
102
}
330
C
100
AcDbDictionary
281
     1
  3
Imperial24
350
6B
  0
DICTIONARY
  5
D
102
{ACAD_REACTORS
330
C
102
}
330
C
100
AcDbDictionary
281
     1
  0
RASTERVARIABLES
  5
7A
102
{ACAD_REACTORS
330
C
102
}
330
C
100
AcDbRasterVariables
 90
        0
 70
     0
 71
     1
 72
     1
  0
DICTIONARY
  5
62
102
{ACAD_REACTORS
330
C
102
}
330
C
100
AcDbDictionary
281
     1
  3
Layout1
350
6F
  3
Layout2
350
77
  3
Model
350
73
  0
DICTIONARY
  5
10
102
{ACAD_REACTORS
330
C
102
}
330
C
100
AcDbDictionary
281
     1
  3
ByBlock
350
19
  3
ByLayer
350
11
  3
Global
350
21
  3
RevitMaterialDefinition252
350
5EC
  3
RevitMaterialDefinition3251
350
5E6
  3
RevitMaterialDefinition3254
350
5E9
  0
DICTIONARY
  5
66
102
{ACAD_REACTORS
330
C
102
}
330
C
100
AcDbDictionary
281
     1
  3
Standard
350
67
  0
DICTIONARY
  5
5F
102
{ACAD_REACTORS
330
C
102
}
330
C
100
AcDbDictionary
281
     1
  3
Standard
350
60
  0
DICTIONARY
  5
61
102
{ACAD_REACTORS
330
C
102
}
330
C
100
AcDbDictionary
281
     1
  0
ACDBDICTIONARYWDFLT
  5
E
102
{ACAD_REACTORS
330
C
102
}
330
C
100
AcDbDictionary
281
     1
  3
Normal
350
F
100
AcDbDictionaryWithDefault
340
F
  0
DICTIONARY
  5
42
102
{ACAD_REACTORS
330
C
102
}
330
C
100
AcDbDictionary
281
     1
  3
A0
350
43
  3
A1
350
44
  3
A2
350
45
  3
A3
350
46
  3
A4
350
47
  3
A5
350
48
  3
A6
350
49
  3
A7
350
4A
  3
A8
350
4B
  3
A9
350
4C
  3
B0
350
4D
  3
B1
350
4E
  3
B2
350
4F
  3
B3
350
50
  3
B4
350
51
  3
B5
350
52
  3
B6
350
53
  0
DICTIONARY
  5
68
102
{ACAD_REACTORS
330
C
102
}
330
C
100
AcDbDictionary
281
     1
  3
Imperial24
350
69
  0
DICTIONARY
  5
64
102
{ACAD_REACTORS
330
C
102
}
330
C
100
AcDbDictionary
281
     1
  3
Standard
350
65
  0
DICTIONARY
  5
29
102
{ACAD_REACTORS
330
C
102
}
330
C
100
AcDbDictionary
281
     1
  3
2dWireframe
350
2F
  3
Basic
350
2E
  3
Brighten
350
35
  3
ColorChange
350
39
  3
Conceptual
350
32
  3
Dim
350
34
  3
EdgeColorOff
350
41
  3
Facepattern
350
38
  3
Flat
350
2A
  3
FlatWithEdges
350
2B
  3
Gouraud
350
2C
  3
GouraudWithEdges
350
2D
  3
Hidden
350
31
  3
JitterOff
350
3F
  3
Linepattern
350
37
  3
OverhangOff
350
40
  3
Realistic
350
33
  3
REVIT_VISUAL_STYLE
350
5A4
  3
Shaded
350
3E
  3
Shaded with edges
350
3D
  3
Shades of Gray
350
3A
  3
Sketchy
350
3B
  3
Thicken
350
36
  3
Wireframe
350
30
  3
X-Ray
350
3C
  0
XRECORD
  5
5F6
102
{ACAD_REACTORS
330
C
102
}
330
C
100
AcDbXrecord
280
     1
 90
        1
330
65
  0
DICTIONARY
  5
7B
102
{ACAD_REACTORS
330
C
102
}
330
C
100
AcDbDictionary
281
     1
  3
CANNOSCALE
350
80
  3
CMLEADERSTYLE
350
7D
  3
CTABLESTYLE
350
7C
  3
CVIEWDETAILSTYLE
350
7E
  3
CVIEWSECTIONSTYLE
350
7F
  0
DICTIONARY
  5
5EF
102
{ACAD_REACTORS
330
C
102
}
330
C
100
AcDbDictionary
281
     1
  3
DRAWING_TOOL
350
5F2
  3
REVIT_CATEGORY_MAPPING
350
5F0
  3
REVIT_SUB_CATEGORY_MAPPING
350
5F1
  0
ACDBDETAILVIEWSTYLE
  5
6B
102
{ACAD_REACTORS
330
6A
102
}
330
6A
100
AcDbModelDocViewStyle
 70
     0
  3
Imperial24
290
     1
300
Imperial24
 90
        0
100
AcDbDetailViewStyle
 70
     0
 71
     0
 90
        3
 71
     1
340
55
 62
   256
 40
0.24
340
0
 62
   256
 40
0.24
300

 40
0.36
280
     3
 71
     2
340
5D
 90
       25
 62
   256
 71
     3
340
55
 62
   256
 40
0.24
 90
        1
 40
0.75
 90
        1
300
%<\AcVar ViewType \f "%tc1">% %<\AcVar ViewDetailId>%\PSCALE %<\AcVar ViewScale \f "%sn">%
 71
     4
340
5D
 90
       25
 62
   256
340
5D
 90
       25
 62
   256
280
     0
  0
LAYOUT
  5
6F
102
{ACAD_REACTORS
330
62
102
}
330
62
100
AcDbPlotSettings
  1

  2

  4

  6

 40
0.0
 41
0.0
 42
0.0
 43
0.0
 44
0.0
 45
0.0
 46
0.0
 47
0.0
 48
0.0
 49
0.0
140
0.0
141
0.0
142
1.0
143
1.0
 70
   688
 72
     0
 73
     0
 74
     5
  7

 75
    16
147
1.0
 76
     0
 77
     2
 78
   300
148
0.0
149
0.0
100
AcDbLayout
  1
Layout1
 70
     1
 71
     1
 10
0.0
 20
0.0
 11
12.0
 21
9.0
 12
0.0
 22
0.0
 32
0.0
 14
0.0
 24
0.0
 34
0.0
 15
0.0
 25
0.0
 35
0.0
146
0.0
 13
0.0
 23
0.0
 33
0.0
 16
1.0
 26
0.0
 36
0.0
 17
0.0
 27
1.0
 37
0.0
 76
     0
330
6C
  0
LAYOUT
  5
77
102
{ACAD_REACTORS
330
62
102
}
330
62
100
AcDbPlotSettings
  1

  2

  4

  6

 40
0.0
 41
0.0
 42
0.0
 43
0.0
 44
0.0
 45
0.0
 46
0.0
 47
0.0
 48
0.0
 49
0.0
140
0.0
141
0.0
142
1.0
143
1.0
 70
   688
 72
     0
 73
     0
 74
     5
  7

 75
    16
147
1.0
 76
     0
 77
     2
 78
   300
148
0.0
149
0.0
100
AcDbLayout
  1
Layout2
 70
     1
 71
     2
 10
0.0
 20
0.0
 11
12.0
 21
9.0
 12
0.0
 22
0.0
 32
0.0
 14
0.0
 24
0.0
 34
0.0
 15
0.0
 25
0.0
 35
0.0
146
0.0
 13
0.0
 23
0.0
 33
0.0
 16
1.0
 26
0.0
 36
0.0
 17
0.0
 27
1.0
 37
0.0
 76
     0
330
74
  0
LAYOUT
  5
73
102
{ACAD_REACTORS
330
62
102
}
330
62
100
AcDbPlotSettings
  1

  2

  4

  6

 40
0.0
 41
0.0
 42
0.0
 43
0.0
 44
0.0
 45
0.0
 46
0.0
 47
0.0
 48
0.0
 49
0.0
140
0.0
141
0.0
142
1.0
143
1.0
 70
  1712
 72
     0
 73
     0
 74
     0
  7

 75
     0
147
1.0
 76
     0
 77
     2
 78
   300
148
0.0
149
0.0
100
AcDbLayout
  1
Model
 70
     1
 71
     0
 10
0.0
 20
0.0
 11
12.0
 21
9.0
 12
0.0
 22
0.0
 32
0.0
 14
0.0
 24
0.0
 34
0.0
 15
0.0
 25
0.0
 35
0.0
146
0.0
 13
0.0
 23
0.0
 33
0.0
 16
1.0
 26
0.0
 36
0.0
 17
0.0
 27
1.0
 37
0.0
 76
     0
330
70
  0
MATERIAL
  5
19
102
{ACAD_XDICTIONARY
360
1A
102
}
102
{ACAD_REACTORS
330
10
102
}
330
10
100
AcDbMaterial
  1
ByBlock
 72
     0
 43
0.0208333333333333
 43
0.0
 43
0.0
 43
0.0
 43
0.0
 43
0.0208333333333333
 43
0.0
 43
0.0
 43
0.0
 43
0.0
 43
1.0
 43
0.0
 43
0.0
 43
0.0
 43
0.0
 43
1.0
 77
     0
 47
0.0208333333333333
 47
0.0
 47
0.0
 47
0.0
 47
0.0
 47
0.0208333333333333
 47
0.0
 47
0.0
 47
0.0
 47
0.0
 47
1.0
 47
0.0
 47
0.0
 47
0.0
 47
0.0
 47
1.0
171
     0
 49
0.0208333333333333
 49
0.0
 49
0.0
 49
0.0
 49
0.0
 49
0.0208333333333333
 49
0.0
 49
0.0
 49
0.0
 49
0.0
 49
1.0
 49
0.0
 49
0.0
 49
0.0
 49
0.0
 49
1.0
175
     0
142
0.0208333333333333
142
0.0
142
0.0
142
0.0
142
0.0
142
0.0208333333333333
142
0.0
142
0.0
142
0.0
142
0.0
142
1.0
142
0.0
142
0.0
142
0.0
142
0.0
142
1.0
179
     0
144
0.0208333333333333
144
0.0
144
0.0
144
0.0
144
0.0
144
0.0208333333333333
144
0.0
144
0.0
144
0.0
144
0.0
144
1.0
144
0.0
144
0.0
144
0.0
144
0.0
144
1.0
147
0.0208333333333333
147
0.0
147
0.0
147
0.0
147
0.0
147
0.0208333333333333
147
0.0
147
0.0
147
0.0
147
0.0
147
1.0
147
0.0
147
0.0
147
0.0
147
0.0
147
1.0
  0
MATERIAL
  5
11
102
{ACAD_XDICTIONARY
360
12
102
}
102
{ACAD_REACTORS
330
10
102
}
330
10
100
AcDbMaterial
  1
ByLayer
 72
     0
 43
0.0208333333333333
 43
0.0
 43
0.0
 43
0.0
 43
0.0
 43
0.0208333333333333
 43
0.0
 43
0.0
 43
0.0
 43
0.0
 43
1.0
 43
0.0
 43
0.0
 43
0.0
 43
0.0
 43
1.0
 77
     0
 47
0.0208333333333333
 47
0.0
 47
0.0
 47
0.0
 47
0.0
 47
0.0208333333333333
 47
0.0
 47
0.0
 47
0.0
 47
0.0
 47
1.0
 47
0.0
 47
0.0
 47
0.0
 47
0.0
 47
1.0
171
     0
 49
0.0208333333333333
 49
0.0
 49
0.0
 49
0.0
 49
0.0
 49
0.0208333333333333
 49
0.0
 49
0.0
 49
0.0
 49
0.0
 49
1.0
 49
0.0
 49
0.0
 49
0.0
 49
0.0
 49
1.0
175
     0
142
0.0208333333333333
142
0.0
142
0.0
142
0.0
142
0.0
142
0.0208333333333333
142
0.0
142
0.0
142
0.0
142
0.0
142
1.0
142
0.0
142
0.0
142
0.0
142
0.0
142
1.0
179
     0
144
0.0208333333333333
144
0.0
144
0.0
144
0.0
144
0.0
144
0.0208333333333333
144
0.0
144
0.0
144
0.0
144
0.0
144
1.0
144
0.0
144
0.0
144
0.0
144
0.0
144
1.0
147
0.0208333333333333
147
0.0
147
0.0
147
0.0
147
0.0
147
0.0208333333333333
147
0.0
147
0.0
147
0.0
147
0.0
147
1.0
147
0.0
147
0.0
147
0.0
147
0.0
147
1.0
  0
MATERIAL
  5
21
102
{ACAD_XDICTIONARY
360
22
102
}
102
{ACAD_REACTORS
330
10
102
}
330
10
100
AcDbMaterial
  1
Global
 72
     0
 43
0.0208333333333333
 43
0.0
 43
0.0
 43
0.0
 43
0.0
 43
0.0208333333333333
 43
0.0
 43
0.0
 43
0.0
 43
0.0
 43
1.0
 43
0.0
 43
0.0
 43
0.0
 43
0.0
 43
1.0
 77
     0
 47
0.0208333333333333
 47
0.0
 47
0.0
 47
0.0
 47
0.0
 47
0.0208333333333333
 47
0.0
 47
0.0
 47
0.0
 47
0.0
 47
1.0
 47
0.0
 47
0.0
 47
0.0
 47
0.0
 47
1.0
171
     0
 49
0.0208333333333333
 49
0.0
 49
0.0
 49
0.0
 49
0.0
 49
0.0208333333333333
 49
0.0
 49
0.0
 49
0.0
 49
0.0
 49
1.0
 49
0.0
 49
0.0
 49
0.0
 49
0.0
 49
1.0
175
     0
142
0.0208333333333333
142
0.0
142
0.0
142
0.0
142
0.0
142
0.0208333333333333
142
0.0
142
0.0
142
0.0
142
0.0
142
1.0
142
0.0
142
0.0
142
0.0
142
0.0
142
1.0
179
     0
144
0.0208333333333333
144
0.0
144
0.0
144
0.0
144
0.0
144
0.0208333333333333
144
0.0
144
0.0
144
0.0
144
0.0
144
1.0
144
0.0
144
0.0
144
0.0
144
0.0
144
1.0
147
0.0208333333333333
147
0.0
147
0.0
147
0.0
147
0.0
147
0.0208333333333333
147
0.0
147
0.0
147
0.0
147
0.0
147
1.0
147
0.0
147
0.0
147
0.0
147
0.0
147
1.0
  0
MATERIAL
  5
5EC
102
{ACAD_XDICTIONARY
360
5ED
102
}
102
{ACAD_REACTORS
330
10
102
}
330
10
100
AcDbMaterial
  1
RevitMaterialDefinition252
 70
     1
 90
-1026752513
 71
     1
 91
-1026752513
 73
     1
 76
     1
 45
0.5
 77
     0
140
0.3799999952316284
175
     0
145
0.0
  0
MATERIAL
  5
5E6
102
{ACAD_XDICTIONARY
360
5E7
102
}
102
{ACAD_REACTORS
330
10
102
}
330
10
100
AcDbMaterial
  1
RevitMaterialDefinition3251
 70
     1
 90
-1035512751
 71
     1
 91
-1035512751
 73
     1
 76
     1
 45
0.5
 77
     0
175
     0
145
0.0
  0
MATERIAL
  5
5E9
102
{ACAD_XDICTIONARY
360
5EA
102
}
102
{ACAD_REACTORS
330
10
102
}
330
10
100
AcDbMaterial
  1
RevitMaterialDefinition3254
 70
     1
 90
-1023410177
 71
     1
 91
-1023410177
 73
     1
 76
     1
 45
0.5
 77
     0
175
     0
145
0.0
  0
MLEADERSTYLE
  5
67
102
{ACAD_REACTORS
330
66
102
}
330
66
100
AcDbMLeaderStyle
179
     2
170
     2
171
     1
172
     0
 90
        2
 40
0.0
 41
0.0
173
     1
 91
-1056964608
340
5B
 92
       -2
290
     1
 42
0.09
291
     1
 43
0.36
  3
Standard
 44
0.18
300

342
55
174
     1
178
     6
175
     1
176
     0
 93
-1056964608
 45
0.18
292
     0
297
     0
 46
0.18
 94
-1056964608
 47
1.0
 49
1.0
140
1.0
293
     1
141
0.0
294
     1
177
     0
142
1.0
295
     1
296
     0
143
0.125
271
     0
272
     9
273
     9
298
     1
  0
MLINESTYLE
  5
60
102
{ACAD_REACTORS
330
5F
102
}
330
5F
100
AcDbMlineStyle
  2
STANDARD
 70
     0
  3

 62
   256
 51
90.0
 52
90.0
 71
     2
 49
0.5
 62
   256
  6
BYLAYER
 49
-0.5
 62
   256
  6
BYLAYER
  0
ACDBPLACEHOLDER
  5
F
102
{ACAD_REACTORS
330
E
102
}
330
E
  0
SCALE
  5
43
102
{ACAD_REACTORS
330
42
102
}
330
42
100
AcDbScale
 70
     0
300
1:1
140
1.0
141
1.0
290
     1
  0
SCALE
  5
44
102
{ACAD_REACTORS
330
42
102
}
330
42
100
AcDbScale
 70
     0
300
1/128" = 1'-0"
140
0.0078125
141
12.0
290
     0
  0
SCALE
  5
45
102
{ACAD_REACTORS
330
42
102
}
330
42
100
AcDbScale
 70
     0
300
1/64" = 1'-0"
140
0.015625
141
12.0
290
     0
  0
SCALE
  5
46
102
{ACAD_REACTORS
330
42
102
}
330
42
100
AcDbScale
 70
     0
300
1/32" = 1'-0"
140
0.03125
141
12.0
290
     0
  0
SCALE
  5
47
102
{ACAD_REACTORS
330
42
102
}
330
42
100
AcDbScale
 70
     0
300
1/16" = 1'-0"
140
0.0625
141
12.0
290
     0
  0
SCALE
  5
48
102
{ACAD_REACTORS
330
42
102
}
330
42
100
AcDbScale
 70
     0
300
3/32" = 1'-0"
140
0.09375
141
12.0
290
     0
  0
SCALE
  5
49
102
{ACAD_REACTORS
330
42
102
}
330
42
100
AcDbScale
 70
     0
300
1/8" = 1'-0"
140
0.125
141
12.0
290
     0
  0
SCALE
  5
4A
102
{ACAD_REACTORS
330
42
102
}
330
42
100
AcDbScale
 70
     0
300
3/16" = 1'-0"
140
0.1875
141
12.0
290
     0
  0
SCALE
  5
4B
102
{ACAD_REACTORS
330
42
102
}
330
42
100
AcDbScale
 70
     0
300
1/4" = 1'-0"
140
0.25
141
12.0
290
     0
  0
SCALE
  5
4C
102
{ACAD_REACTORS
330
42
102
}
330
42
100
AcDbScale
 70
     0
300
3/8" = 1'-0"
140
0.375
141
12.0
290
     0
  0
SCALE
  5
4D
102
{ACAD_REACTORS
330
42
102
}
330
42
100
AcDbScale
 70
     0
300
1/2" = 1'-0"
140
0.5
141
12.0
290
     0
  0
SCALE
  5
4E
102
{ACAD_REACTORS
330
42
102
}
330
42
100
AcDbScale
 70
     0
300
3/4" = 1'-0"
140
0.75
141
12.0
290
     0
  0
SCALE
  5
4F
102
{ACAD_REACTORS
330
42
102
}
330
42
100
AcDbScale
 70
     0
300
1" = 1'-0"
140
1.0
141
12.0
290
     0
  0
SCALE
  5
50
102
{ACAD_REACTORS
330
42
102
}
330
42
100
AcDbScale
 70
     0
300
1-1/2" = 1'-0"
140
1.5
141
12.0
290
     0
  0
SCALE
  5
51
102
{ACAD_REACTORS
330
42
102
}
330
42
100
AcDbScale
 70
     0
300
3" = 1'-0"
140
3.0
141
12.0
290
     0
  0
SCALE
  5
52
102
{ACAD_REACTORS
330
42
102
}
330
42
100
AcDbScale
 70
     0
300
6" = 1'-0"
140
6.0
141
12.0
290
     0
  0
SCALE
  5
53
102
{ACAD_REACTORS
330
42
102
}
330
42
100
AcDbScale
 70
     0
300
1'-0" = 1'-0"
140
12.0
141
12.0
290
     0
  0
ACDBSECTIONVIEWSTYLE
  5
69
102
{ACAD_REACTORS
330
68
102
}
330
68
100
AcDbModelDocViewStyle
 70
     0
  3
Imperial24
290
     1
300
Imperial24
 90
        0
100
AcDbSectionViewStyle
 70
     0
 71
     0
 90
       78
 71
     1
340
55
 62
   256
 40
0.24
340
0
340
0
 62
   256
 40
0.24
300
I, O, Q, S, X, Z
 40
0.48
 90
        3
 40
0.18
 90
        1
 71
     2
340
5D
 90
       25
 62
   256
340
5D
 90
       50
 62
   256
 40
0.24
 40
0.0
 40
0.24
 71
     3
340
55
 62
   256
 40
0.24
 90
        1
 40
0.75
 90
        1
300
%<\AcVar ViewType \f "%tc1">% %<\AcVar ViewSectionStartId>%-%<\AcVar ViewSectionEndId>%\PSCALE %<\AcVar ViewScale \f "%sn">%
 71
     4
 62
   256
 62
   257
300
ANSI31
 40
1.0
 90
        0
290
     0
290
     0
 90
        6
 40
0.0
 40
1.570796326794896
 40
0.2617993877991494
 40
1.308996938995747
 40
-0.2617993877991494
 40
1.832595714594046
  0
TABLESTYLE
  5
65
102
{ACAD_XDICTIONARY
360
5F4
102
}
102
{ACAD_REACTORS
330
64
102
}
330
64
100
AcDbTableStyle
280
     0
  3
Standard
 70
     0
 71
     0
 40
0.06
 41
0.06
280
     0
281
     0
  7
Standard
140
0.18
170
     2
 62
     0
 63
     7
283
     0
 90
      512
 91
        0
  1

274
    -2
284
     1
 64
     0
275
    -2
285
     1
 65
     0
276
    -2
286
     1
 66
     0
277
    -2
287
     1
 67
     0
278
    -2
288
     1
 68
     0
279
    -2
289
     1
 69
     0
  7
Standard
140
0.25
170
     5
 62
     0
 63
     7
283
     0
 90
      512
 91
        0
  1

274
    -2
284
     1
 64
     0
275
    -2
285
     1
 65
     0
276
    -2
286
     1
 66
     0
277
    -2
287
     1
 67
     0
278
    -2
288
     1
 68
     0
279
    -2
289
     1
 69
     0
  7
Standard
140
0.18
170
     5
 62
     0
 63
     7
283
     0
 90
      512
 91
        0
  1

274
    -2
284
     1
 64
     0
275
    -2
285
     1
 65
     0
276
    -2
286
     1
 66
     0
277
    -2
287
     1
 67
     0
278
    -2
288
     1
 68
     0
279
    -2
289
     1
 69
     0
  0
VISUALSTYLE
  5
2F
102
{ACAD_REACTORS
330
29
102
}
330
29
100
AcDbVisualStyle
  2
2dWireframe
 70
     4
177
     3
291
     0
 70
    58
 90
        0
176
     1
 90
        2
176
     1
 90
        0
176
     1
 90
        0
176
     1
 40
0.6
176
     1
 40
30.0
176
     1
 62
     7
420
 16777215
176
     1
 90
        1
176
     1
 90
        4
176
     1
 62
     7
176
     1
 62
   257
176
     1
 90
        1
176
     1
 90
        1
176
     1
 40
1.0
176
     1
 90
        0
176
     1
 62
   257
176
     1
 40
1.0
176
     1
 90
        1
176
     1
 90
        6
176
     1
 90
        2
176
     1
 62
     7
176
     1
 90
        5
176
     1
 90
        0
176
     1
 90
        0
176
     1
290
     0
176
     1
 90
        1
176
     1
 40
0.0
176
     1
 90
        0
176
     1
290
     1
176
     1
290
     1
176
     1
290
     0
176
     1
290
     0
176
     1
290
     0
176
     1
290
     0
176
     1
290
     0
176
     1
290
     0
176
     1
290
     0
176
     1
 90
       50
176
     1
 40
0.0
176
     1
 40
1.0
176
     1
 90
        0
176
     1
 62
    18
420
        0
176
     1
 90
       50
176
     1
 90
        3
176
     1
 62
     5
420
      255
176
     1
290
     0
176
     1
 90
       50
176
     1
 90
       50
176
     1
 90
       50
176
     1
290
     0
176
     1
 90
       50
176
     1
 62
   256
176
     0
 40
1.0
176
     0
 90
        2
176
     1
  1
strokes_ogs.tif
176
     1
290
     0
176
     1
 40
1.0
176
     1
 40
1.0
176
     1
  0
VISUALSTYLE
  5
2E
102
{ACAD_REACTORS
330
29
102
}
330
29
100
AcDbVisualStyle
  2
Basic
 70
     7
177
     3
291
     1
 70
    58
 90
        1
176
     1
 90
        0
176
     1
 90
        1
176
     1
 90
        0
176
     1
 40
0.6
176
     1
 40
30.0
176
     1
 62
     7
420
 16777215
176
     1
 90
        0
176
     1
 90
        4
176
     1
 62
     7
176
     1
 62
   257
176
     1
 90
        1
176
     1
 90
        1
176
     1
 40
1.0
176
     1
 90
        8
176
     1
 62
     7
176
     1
 40
1.0
176
     1
 90
        1
176
     1
 90
        6
176
     1
 90
        2
176
     1
 62
     7
176
     1
 90
        5
176
     1
 90
        0
176
     1
 90
        0
176
     1
290
     0
176
     1
 90
        1
176
     1
 40
0.0
176
     1
 90
        0
176
     1
290
     0
176
     1
290
     1
176
     1
290
     1
176
     1
290
     0
176
     1
290
     0
176
     1
290
     0
176
     1
290
     0
176
     1
290
     0
176
     1
290
     0
176
     1
 90
       50
176
     1
 40
0.0
176
     1
 40
1.0
176
     1
 90
        0
176
     1
 62
    18
420
        0
176
     1
 90
       50
176
     1
 90
        3
176
     1
 62
     5
420
      255
176
     1
290
     0
176
     1
 90
       50
176
     1
 90
       50
176
     1
 90
       50
176
     1
290
     0
176
     1
 90
       50
176
     1
 62
   256
176
     0
 40
1.0
176
     0
 90
        2
176
     1
  1
strokes_ogs.tif
176
     1
290
     0
176
     1
 40
1.0
176
     1
 40
1.0
176
     1
  0
VISUALSTYLE
  5
35
102
{ACAD_REACTORS
330
29
102
}
330
29
100
AcDbVisualStyle
  2
Brighten
 70
    12
177
     3
291
     1
 70
    58
 90
        2
176
     1
 90
        2
176
     1
 90
        0
176
     1
 90
        0
176
     1
 40
0.6
176
     1
 40
30.0
176
     1
 62
     7
420
 16777215
176
     1
 90
        1
176
     1
 90
        4
176
     1
 62
     7
176
     1
 62
   257
176
     1
 90
        1
176
     1
 90
        1
176
     1
 40
1.0
176
     1
 90
        8
176
     1
 62
     7
176
     1
 40
1.0
176
     1
 90
        1
176
     1
 90
        6
176
     1
 90
        2
176
     1
 62
     7
176
     1
 90
        5
176
     1
 90
        0
176
     1
 90
        0
176
     1
290
     0
176
     1
 90
        1
176
     1
 40
50.0
176
     1
 90
        0
176
     1
290
     0
176
     1
290
     1
176
     1
290
     1
176
     1
290
     0
176
     1
290
     0
176
     1
290
     0
176
     1
290
     0
176
     1
290
     0
176
     1
290
     0
176
     1
 90
       50
176
     1
 40
0.0
176
     1
 40
1.0
176
     1
 90
        0
176
     1
 62
    18
420
        0
176
     1
 90
       50
176
     1
 90
        3
176
     1
 62
     5
420
      255
176
     1
290
     0
176
     1
 90
       50
176
     1
 90
       50
176
     1
 90
       50
176
     1
290
     0
176
     1
 90
       50
176
     1
 62
   256
176
     0
 40
1.0
176
     0
 90
        2
176
     1
  1
strokes_ogs.tif
176
     1
290
     0
176
     1
 40
1.0
176
     1
 40
1.0
176
     1
  0
VISUALSTYLE
  5
39
102
{ACAD_REACTORS
330
29
102
}
330
29
100
AcDbVisualStyle
  2
ColorChange
 70
    16
177
     3
291
     1
 70
    58
 90
        2
176
     1
 90
        2
176
     1
 90
        3
176
     1
 90
        0
176
     1
 40
0.6
176
     1
 40
30.0
176
     1
 62
     8
420
  8421504
176
     1
 90
        1
176
     1
 90
        4
176
     1
 62
     7
176
     1
 62
   257
176
     1
 90
        1
176
     1
 90
        1
176
     1
 40
1.0
176
     1
 90
        8
176
     1
 62
     8
420
  8421504
176
     1
 40
1.0
176
     1
 90
        1
176
     1
 90
        6
176
     1
 90
        2
176
     1
 62
     7
176
     1
 90
        5
176
     1
 90
        0
176
     1
 90
        0
176
     1
290
     0
176
     1
 90
        1
176
     1
 40
0.0
176
     1
 90
        0
176
     1
290
     0
176
     1
290
     1
176
     1
290
     1
176
     1
290
     0
176
     1
290
     0
176
     1
290
     0
176
     1
290
     0
176
     1
290
     0
176
     1
290
     0
176
     1
 90
       50
176
     1
 40
0.0
176
     1
 40
1.0
176
     1
 90
        0
176
     1
 62
    18
420
        0
176
     1
 90
       50
176
     1
 90
        3
176
     1
 62
     5
420
      255
176
     1
290
     0
176
     1
 90
       50
176
     1
 90
       50
176
     1
 90
       50
176
     1
290
     0
176
     1
 90
       50
176
     1
 62
   256
176
     0
 40
1.0
176
     0
 90
        2
176
     1
  1
strokes_ogs.tif
176
     1
290
     0
176
     1
 40
1.0
176
     1
 40
1.0
176
     1
  0
VISUALSTYLE
  5
32
102
{ACAD_REACTORS
330
29
102
}
330
29
100
AcDbVisualStyle
  2
Conceptual
 70
     9
177
     3
291
     0
 70
    58
 90
        3
176
     1
 90
        2
176
     1
 90
        0
176
     1
 90
        0
176
     1
 40
0.6
176
     1
 40
30.0
176
     1
 62
     7
420
 16777215
176
     1
 90
        2
176
     1
 90
        2
176
     1
 62
     7
176
     1
 62
   257
176
     1
 90
        1
176
     1
 90
        1
176
     1
 40
179.0
176
     1
 90
        8
176
     1
 62
     7
176
     1
 40
1.0
176
     1
 90
        1
176
     1
 90
        6
176
     1
 90
        2
176
     1
 62
     7
176
     1
 90
        3
176
     1
 90
        0
176
     1
 90
        0
176
     1
290
     0
176
     1
 90
        1
176
     1
 40
0.0
176
     1
 90
        0
176
     1
290
     0
176
     1
290
     1
176
     1
290
     1
176
     1
290
     0
176
     1
290
     0
176
     1
290
     0
176
     1
290
     0
176
     1
290
     0
176
     1
290
     0
176
     1
 90
       50
176
     1
 40
0.0
176
     1
 40
1.0
176
     1
 90
        0
176
     1
 62
    18
420
        0
176
     1
 90
       50
176
     1
 90
        3
176
     1
 62
     5
420
      255
176
     1
290
     0
176
     1
 90
       50
176
     1
 90
       50
176
     1
 90
       50
176
     1
290
     0
176
     1
 90
       50
176
     1
 62
   256
176
     0
 40
1.0
176
     0
 90
        2
176
     1
  1
strokes_ogs.tif
176
     1
290
     0
176
     1
 40
1.0
176
     1
 40
1.0
176
     1
  0
VISUALSTYLE
  5
34
102
{ACAD_REACTORS
330
29
102
}
330
29
100
AcDbVisualStyle
  2
Dim
 70
    11
177
     3
291
     1
 70
    58
 90
        2
176
     1
 90
        2
176
     1
 90
        0
176
     1
 90
        0
176
     1
 40
0.6
176
     1
 40
30.0
176
     1
 62
     7
420
 16777215
176
     1
 90
        1
176
     1
 90
        4
176
     1
 62
     7
176
     1
 62
   257
176
     1
 90
        1
176
     1
 90
        1
176
     1
 40
1.0
176
     1
 90
        8
176
     1
 62
     7
176
     1
 40
1.0
176
     1
 90
        1
176
     1
 90
        6
176
     1
 90
        2
176
     1
 62
     7
176
     1
 90
        5
176
     1
 90
        0
176
     1
 90
        0
176
     1
290
     0
176
     1
 90
        1
176
     1
 40
-50.0
176
     1
 90
        0
176
     1
290
     0
176
     1
290
     1
176
     1
290
     1
176
     1
290
     0
176
     1
290
     0
176
     1
290
     0
176
     1
290
     0
176
     1
290
     0
176
     1
290
     0
176
     1
 90
       50
176
     1
 40
0.0
176
     1
 40
1.0
176
     1
 90
        0
176
     1
 62
    18
420
        0
176
     1
 90
       50
176
     1
 90
        3
176
     1
 62
     5
420
      255
176
     1
290
     0
176
     1
 90
       50
176
     1
 90
       50
176
     1
 90
       50
176
     1
290
     0
176
     1
 90
       50
176
     1
 62
   256
176
     0
 40
1.0
176
     0
 90
        2
176
     1
  1
strokes_ogs.tif
176
     1
290
     0
176
     1
 40
1.0
176
     1
 40
1.0
176
     1
  0
VISUALSTYLE
  5
41
102
{ACAD_REACTORS
330
29
102
}
330
29
100
AcDbVisualStyle
  2
EdgeColorOff
 70
    22
177
     3
291
     1
 70
    58
 90
        2
176
     0
 90
        2
176
     0
 90
        0
176
     0
 90
        0
176
     0
 40
0.6
176
     0
 40
30.0
176
     0
 62
     7
420
 16777215
176
     0
 90
        1
176
     0
 90
        4
176
     0
 62
     7
176
     0
 62
   257
176
     0
 90
        1
176
     0
 90
        1
176
     0
 40
1.0
176
     0
 90
        8
176
     2
 62
     7
176
     0
 40
1.0
176
     0
 90
        1
176
     0
 90
        6
176
     0
 90
        2
176
     0
 62
     7
176
     0
 90
        5
176
     0
 90
        0
176
     0
 90
        0
176
     0
290
     0
176
     0
 90
        1
176
     0
 40
0.0
176
     0
 90
        0
176
     0
290
     0
176
     0
290
     1
176
     0
290
     1
176
     0
290
     0
176
     0
290
     0
176
     0
290
     0
176
     0
290
     0
176
     0
290
     0
176
     0
290
     0
176
     0
 90
       50
176
     0
 40
0.0
176
     0
 40
1.0
176
     0
 90
        0
176
     0
 62
    18
420
        0
176
     0
 90
       50
176
     0
 90
        3
176
     0
 62
     5
420
      255
176
     0
290
     0
176
     0
 90
       50
176
     0
 90
       50
176
     0
 90
       50
176
     0
290
     0
176
     0
 90
       50
176
     0
 62
   256
176
     0
 40
1.0
176
     0
 90
        2
176
     0
  1
strokes_ogs.tif
176
     0
290
     0
176
     0
 40
1.0
176
     0
 40
1.0
176
     0
  0
VISUALSTYLE
  5
38
102
{ACAD_REACTORS
330
29
102
}
330
29
100
AcDbVisualStyle
  2
Facepattern
 70
    15
177
     3
291
     1
 70
    58
 90
        2
176
     1
 90
        2
176
     1
 90
        0
176
     1
 90
        0
176
     1
 40
0.6
176
     1
 40
30.0
176
     1
 62
     7
420
 16777215
176
     1
 90
        1
176
     1
 90
        4
176
     1
 62
     7
176
     1
 62
   257
176
     1
 90
        1
176
     1
 90
        1
176
     1
 40
1.0
176
     1
 90
        8
176
     1
 62
     7
176
     1
 40
1.0
176
     1
 90
        1
176
     1
 90
        6
176
     1
 90
        2
176
     1
 62
     7
176
     1
 90
        5
176
     1
 90
        0
176
     1
 90
        0
176
     1
290
     0
176
     1
 90
        1
176
     1
 40
0.0
176
     1
 90
        0
176
     1
290
     0
176
     1
290
     1
176
     1
290
     1
176
     1
290
     0
176
     1
290
     0
176
     1
290
     0
176
     1
290
     0
176
     1
290
     0
176
     1
290
     0
176
     1
 90
       50
176
     1
 40
0.0
176
     1
 40
1.0
176
     1
 90
        0
176
     1
 62
    18
420
        0
176
     1
 90
       50
176
     1
 90
        3
176
     1
 62
     5
420
      255
176
     1
290
     0
176
     1
 90
       50
176
     1
 90
       50
176
     1
 90
       50
176
     1
290
     0
176
     1
 90
       50
176
     1
 62
   256
176
     0
 40
1.0
176
     0
 90
        2
176
     1
  1
strokes_ogs.tif
176
     1
290
     0
176
     1
 40
1.0
176
     1
 40
1.0
176
     1
  0
VISUALSTYLE
  5
2A
102
{ACAD_REACTORS
330
29
102
}
330
29
100
AcDbVisualStyle
  2
Flat
 70
     0
177
     3
291
     1
 70
    58
 90
        2
176
     1
 90
        1
176
     1
 90
        1
176
     1
 90
        2
176
     1
 40
0.6
176
     1
 40
30.0
176
     1
 62
     7
420
 16777215
176
     1
 90
        0
176
     1
 90
        0
176
     1
 62
     7
176
     1
 62
   257
176
     1
 90
        1
176
     1
 90
        1
176
     1
 40
1.0
176
     1
 90
        8
176
     1
 62
     7
176
     1
 40
1.0
176
     1
 90
        1
176
     1
 90
        6
176
     1
 90
        2
176
     1
 62
     7
176
     1
 90
        5
176
     1
 90
        0
176
     1
 90
        0
176
     1
290
     0
176
     1
 90
       13
176
     1
 40
0.0
176
     1
 90
        0
176
     1
290
     0
176
     1
290
     1
176
     1
290
     1
176
     1
290
     0
176
     1
290
     0
176
     1
290
     0
176
     1
290
     0
176
     1
290
     0
176
     1
290
     0
176
     1
 90
       50
176
     1
 40
0.0
176
     1
 40
1.0
176
     1
 90
        0
176
     1
 62
    18
420
        0
176
     1
 90
       50
176
     1
 90
        3
176
     1
 62
     5
420
      255
176
     1
290
     0
176
     1
 90
       50
176
     1
 90
       50
176
     1
 90
       50
176
     1
290
     0
176
     1
 90
       50
176
     1
 62
   256
176
     0
 40
1.0
176
     0
 90
        2
176
     1
  1
strokes_ogs.tif
176
     1
290
     0
176
     1
 40
1.0
176
     1
 40
1.0
176
     1
  0
VISUALSTYLE
  5
2B
102
{ACAD_REACTORS
330
29
102
}
330
29
100
AcDbVisualStyle
  2
FlatWithEdges
 70
     1
177
     3
291
     1
 70
    58
 90
        2
176
     1
 90
        1
176
     1
 90
        1
176
     1
 90
        2
176
     1
 40
0.6
176
     1
 40
30.0
176
     1
 62
     7
420
 16777215
176
     1
 90
        1
176
     1
 90
        0
176
     1
 62
     7
176
     1
 62
   257
176
     1
 90
        1
176
     1
 90
        1
176
     1
 40
1.0
176
     1
 90
        0
176
     1
 62
   257
176
     1
 40
1.0
176
     1
 90
        1
176
     1
 90
        6
176
     1
 90
        2
176
     1
 62
     7
176
     1
 90
        5
176
     1
 90
        0
176
     1
 90
        0
176
     1
290
     0
176
     1
 90
       13
176
     1
 40
0.0
176
     1
 90
        0
176
     1
290
     0
176
     1
290
     1
176
     1
290
     1
176
     1
290
     0
176
     1
290
     0
176
     1
290
     0
176
     1
290
     0
176
     1
290
     0
176
     1
290
     0
176
     1
 90
       50
176
     1
 40
0.0
176
     1
 40
1.0
176
     1
 90
        0
176
     1
 62
    18
420
        0
176
     1
 90
       50
176
     1
 90
        3
176
     1
 62
     5
420
      255
176
     1
290
     0
176
     1
 90
       50
176
     1
 90
       50
176
     1
 90
       50
176
     1
290
     0
176
     1
 90
       50
176
     1
 62
   256
176
     0
 40
1.0
176
     0
 90
        2
176
     1
  1
strokes_ogs.tif
176
     1
290
     0
176
     1
 40
1.0
176
     1
 40
1.0
176
     1
  0
VISUALSTYLE
  5
2C
102
{ACAD_REACTORS
330
29
102
}
330
29
100
AcDbVisualStyle
  2
Gouraud
 70
     2
177
     3
291
     1
 70
    58
 90
        2
176
     1
 90
        2
176
     1
 90
        1
176
     1
 90
        2
176
     1
 40
0.6
176
     1
 40
30.0
176
     1
 62
     7
420
 16777215
176
     1
 90
        0
176
     1
 90
        0
176
     1
 62
     7
176
     1
 62
   257
176
     1
 90
        1
176
     1
 90
        1
176
     1
 40
1.0
176
     1
 90
        0
176
     1
 62
     7
176
     1
 40
1.0
176
     1
 90
        1
176
     1
 90
        6
176
     1
 90
        2
176
     1
 62
     7
176
     1
 90
        5
176
     1
 90
        0
176
     1
 90
        0
176
     1
290
     0
176
     1
 90
       13
176
     1
 40
0.0
176
     1
 90
        0
176
     1
290
     0
176
     1
290
     1
176
     1
290
     1
176
     1
290
     0
176
     1
290
     0
176
     1
290
     0
176
     1
290
     0
176
     1
290
     0
176
     1
290
     0
176
     1
 90
       50
176
     1
 40
0.0
176
     1
 40
1.0
176
     1
 90
        0
176
     1
 62
    18
420
        0
176
     1
 90
       50
176
     1
 90
        3
176
     1
 62
     5
420
      255
176
     1
290
     0
176
     1
 90
       50
176
     1
 90
       50
176
     1
 90
       50
176
     1
290
     0
176
     1
 90
       50
176
     1
 62
   256
176
     0
 40
1.0
176
     0
 90
        2
176
     1
  1
strokes_ogs.tif
176
     1
290
     0
176
     1
 40
1.0
176
     1
 40
1.0
176
     1
  0
VISUALSTYLE
  5
2D
102
{ACAD_REACTORS
330
29
102
}
330
29
100
AcDbVisualStyle
  2
GouraudWithEdges
 70
     3
177
     3
291
     1
 70
    58
 90
        2
176
     1
 90
        2
176
     1
 90
        1
176
     1
 90
        2
176
     1
 40
0.6
176
     1
 40
30.0
176
     1
 62
     7
420
 16777215
176
     1
 90
        1
176
     1
 90
        0
176
     1
 62
     7
176
     1
 62
   257
176
     1
 90
        1
176
     1
 90
        1
176
     1
 40
1.0
176
     1
 90
        0
176
     1
 62
   257
176
     1
 40
1.0
176
     1
 90
        1
176
     1
 90
        6
176
     1
 90
        2
176
     1
 62
     7
176
     1
 90
        5
176
     1
 90
        0
176
     1
 90
        0
176
     1
290
     0
176
     1
 90
       13
176
     1
 40
0.0
176
     1
 90
        0
176
     1
290
     0
176
     1
290
     1
176
     1
290
     1
176
     1
290
     0
176
     1
290
     0
176
     1
290
     0
176
     1
290
     0
176
     1
290
     0
176
     1
290
     0
176
     1
 90
       50
176
     1
 40
0.0
176
     1
 40
1.0
176
     1
 90
        0
176
     1
 62
    18
420
        0
176
     1
 90
       50
176
     1
 90
        3
176
     1
 62
     5
420
      255
176
     1
290
     0
176
     1
 90
       50
176
     1
 90
       50
176
     1
 90
       50
176
     1
290
     0
176
     1
 90
       50
176
     1
 62
   256
176
     0
 40
1.0
176
     0
 90
        2
176
     1
  1
strokes_ogs.tif
176
     1
290
     0
176
     1
 40
1.0
176
     1
 40
1.0
176
     1
  0
VISUALSTYLE
  5
31
102
{ACAD_REACTORS
330
29
102
}
330
29
100
AcDbVisualStyle
  2
Hidden
 70
     6
177
     3
291
     0
 70
    58
 90
        1
176
     1
 90
        2
176
     1
 90
        2
176
     1
 90
        0
176
     1
 40
0.6
176
     1
 40
30.0
176
     1
 62
     7
420
 16777215
176
     1
 90
        2
176
     1
 90
        2
176
     1
 62
     7
176
     1
 62
   257
176
     1
 90
        2
176
     1
 90
        1
176
     1
 40
40.0
176
     1
 90
        0
176
     1
 62
   257
176
     1
 40
1.0
176
     1
 90
        1
176
     1
 90
        6
176
     1
 90
        2
176
     1
 62
     7
176
     1
 90
        3
176
     1
 90
        0
176
     1
 90
        0
176
     1
290
     0
176
     1
 90
        1
176
     1
 40
0.0
176
     1
 90
        0
176
     1
290
     0
176
     1
290
     1
176
     1
290
     1
176
     1
290
     0
176
     1
290
     0
176
     1
290
     0
176
     1
290
     0
176
     1
290
     0
176
     1
290
     0
176
     1
 90
       50
176
     1
 40
0.0
176
     1
 40
1.0
176
     1
 90
        0
176
     1
 62
    18
420
        0
176
     1
 90
       50
176
     1
 90
        3
176
     1
 62
     5
420
      255
176
     1
290
     0
176
     1
 90
       50
176
     1
 90
       50
176
     1
 90
       50
176
     1
290
     0
176
     1
 90
       50
176
     1
 62
   256
176
     0
 40
1.0
176
     0
 90
        2
176
     1
  1
strokes_ogs.tif
176
     1
290
     0
176
     1
 40
1.0
176
     1
 40
1.0
176
     1
  0
VISUALSTYLE
  5
3F
102
{ACAD_REACTORS
330
29
102
}
330
29
100
AcDbVisualStyle
  2
JitterOff
 70
    20
177
     3
291
     1
 70
    58
 90
        2
176
     0
 90
        2
176
     0
 90
        0
176
     0
 90
        0
176
     0
 40
0.6
176
     0
 40
30.0
176
     0
 62
     7
420
 16777215
176
     0
 90
        1
176
     0
 90
        4
176
     0
 62
     7
176
     0
 62
   257
176
     0
 90
        1
176
     0
 90
        1
176
     0
 40
1.0
176
     0
 90
       10
176
     2
 62
     7
176
     0
 40
1.0
176
     0
 90
        1
176
     0
 90
        6
176
     0
 90
        2
176
     0
 62
     7
176
     0
 90
        5
176
     0
 90
        0
176
     0
 90
        0
176
     0
290
     0
176
     0
 90
        1
176
     0
 40
0.0
176
     0
 90
        0
176
     0
290
     0
176
     0
290
     1
176
     0
290
     1
176
     0
290
     0
176
     0
290
     0
176
     0
290
     0
176
     0
290
     0
176
     0
290
     0
176
     0
290
     0
176
     0
 90
       50
176
     0
 40
0.0
176
     0
 40
1.0
176
     0
 90
        0
176
     0
 62
    18
420
        0
176
     0
 90
       50
176
     0
 90
        3
176
     0
 62
     5
420
      255
176
     0
290
     0
176
     0
 90
       50
176
     0
 90
       50
176
     0
 90
       50
176
     0
290
     0
176
     0
 90
       50
176
     0
 62
   256
176
     0
 40
1.0
176
     0
 90
        2
176
     0
  1
strokes_ogs.tif
176
     0
290
     0
176
     0
 40
1.0
176
     0
 40
1.0
176
     0
  0
VISUALSTYLE
  5
37
102
{ACAD_REACTORS
330
29
102
}
330
29
100
AcDbVisualStyle
  2
Linepattern
 70
    14
177
     3
291
     1
 70
    58
 90
        2
176
     1
 90
        2
176
     1
 90
        0
176
     1
 90
        0
176
     1
 40
0.6
176
     1
 40
30.0
176
     1
 62
     7
420
 16777215
176
     1
 90
        1
176
     1
 90
        4
176
     1
 62
     7
176
     1
 62
   257
176
     1
 90
        7
176
     1
 90
        7
176
     1
 40
1.0
176
     1
 90
        8
176
     1
 62
     7
176
     1
 40
1.0
176
     1
 90
        1
176
     1
 90
        6
176
     1
 90
        2
176
     1
 62
     7
176
     1
 90
        5
176
     1
 90
        0
176
     1
 90
        0
176
     1
290
     0
176
     1
 90
        1
176
     1
 40
0.0
176
     1
 90
        0
176
     1
290
     0
176
     1
290
     1
176
     1
290
     1
176
     1
290
     0
176
     1
290
     0
176
     1
290
     0
176
     1
290
     0
176
     1
290
     0
176
     1
290
     0
176
     1
 90
       50
176
     1
 40
0.0
176
     1
 40
1.0
176
     1
 90
        0
176
     1
 62
    18
420
        0
176
     1
 90
       50
176
     1
 90
        3
176
     1
 62
     5
420
      255
176
     1
290
     0
176
     1
 90
       50
176
     1
 90
       50
176
     1
 90
       50
176
     1
290
     0
176
     1
 90
       50
176
     1
 62
   256
176
     0
 40
1.0
176
     0
 90
        2
176
     1
  1
strokes_ogs.tif
176
     1
290
     0
176
     1
 40
1.0
176
     1
 40
1.0
176
     1
  0
VISUALSTYLE
  5
40
102
{ACAD_REACTORS
330
29
102
}
330
29
100
AcDbVisualStyle
  2
OverhangOff
 70
    21
177
     3
291
     1
 70
    58
 90
        2
176
     0
 90
        2
176
     0
 90
        0
176
     0
 90
        0
176
     0
 40
0.6
176
     0
 40
30.0
176
     0
 62
     7
420
 16777215
176
     0
 90
        1
176
     0
 90
        4
176
     0
 62
     7
176
     0
 62
   257
176
     0
 90
        1
176
     0
 90
        1
176
     0
 40
1.0
176
     0
 90
        9
176
     2
 62
     7
176
     0
 40
1.0
176
     0
 90
        1
176
     0
 90
        6
176
     0
 90
        2
176
     0
 62
     7
176
     0
 90
        5
176
     0
 90
        0
176
     0
 90
        0
176
     0
290
     0
176
     0
 90
        1
176
     0
 40
0.0
176
     0
 90
        0
176
     0
290
     0
176
     0
290
     1
176
     0
290
     1
176
     0
290
     0
176
     0
290
     0
176
     0
290
     0
176
     0
290
     0
176
     0
290
     0
176
     0
290
     0
176
     0
 90
       50
176
     0
 40
0.0
176
     0
 40
1.0
176
     0
 90
        0
176
     0
 62
    18
420
        0
176
     0
 90
       50
176
     0
 90
        3
176
     0
 62
     5
420
      255
176
     0
290
     0
176
     0
 90
       50
176
     0
 90
       50
176
     0
 90
       50
176
     0
290
     0
176
     0
 90
       50
176
     0
 62
   256
176
     0
 40
1.0
176
     0
 90
        2
176
     0
  1
strokes_ogs.tif
176
     0
290
     0
176
     0
 40
1.0
176
     0
 40
1.0
176
     0
  0
VISUALSTYLE
  5
33
102
{ACAD_REACTORS
330
29
102
}
330
29
100
AcDbVisualStyle
  2
Realistic
 70
     8
177
     3
291
     0
 70
    58
 90
        2
176
     1
 90
        3
176
     1
 90
        0
176
     1
 90
        2
176
     1
 40
0.6
176
     1
 40
30.0
176
     1
 62
     7
420
 16777215
176
     1
 90
        0
176
     1
 90
        0
176
     1
 62
     7
176
     1
 62
   257
176
     1
 90
        1
176
     1
 90
        1
176
     1
 40
1.0
176
     1
 90
        8
176
     1
 62
   257
176
     1
 40
1.0
176
     1
 90
        1
176
     1
 90
        6
176
     1
 90
        2
176
     1
 62
     7
176
     1
 90
        3
176
     1
 90
        0
176
     1
 90
        0
176
     1
290
     0
176
     1
 90
       13
176
     1
 40
0.0
176
     1
 90
        0
176
     1
290
     0
176
     1
290
     1
176
     1
290
     1
176
     1
290
     0
176
     1
290
     0
176
     1
290
     0
176
     1
290
     0
176
     1
290
     0
176
     1
290
     0
176
     1
 90
       50
176
     1
 40
0.0
176
     1
 40
1.0
176
     1
 90
        0
176
     1
 62
    18
420
        0
176
     1
 90
       50
176
     1
 90
        3
176
     1
 62
     5
420
      255
176
     1
290
     0
176
     1
 90
       50
176
     1
 90
       50
176
     1
 90
       50
176
     1
290
     0
176
     1
 90
       50
176
     1
 62
   256
176
     0
 40
1.0
176
     0
 90
        2
176
     1
  1
strokes_ogs.tif
176
     1
290
     0
176
     1
 40
1.0
176
     1
 40
1.0
176
     1
  0
VISUALSTYLE
  5
5A4
102
{ACAD_REACTORS
330
29
102
}
330
29
100
AcDbVisualStyle
  2

 70
     5
177
     3
291
     0
 70
    58
 90
        0
176
     1
 90
        2
176
     1
 90
        0
176
     1
 90
        0
176
     1
 40
0.6
176
     1
 40
30.0
176
     1
 62
     7
420
 16777215
176
     1
 90
        1
176
     1
 90
        4
176
     1
 62
     7
176
     1
 62
   257
176
     1
 90
        1
176
     1
 90
        1
176
     1
 40
1.0
176
     1
 90
        0
176
     1
 62
   257
176
     1
 40
1.0
176
     1
 90
        1
176
     1
 90
        6
176
     1
 90
        2
176
     1
 62
     7
176
     1
 90
        3
176
     1
 90
        0
176
     1
 90
        0
176
     1
290
     0
176
     1
 90
        1
176
     1
 40
0.0
176
     1
 90
        0
176
     1
290
     0
176
     1
290
     1
176
     1
290
     1
176
     1
290
     0
176
     1
290
     0
176
     1
290
     0
176
     1
290
     0
176
     1
290
     0
176
     1
290
     0
176
     1
 90
       50
176
     1
 40
0.0
176
     1
 40
1.0
176
     1
 90
        0
176
     1
 62
    18
420
        0
176
     1
 90
       50
176
     1
 90
        3
176
     1
 62
     5
420
      255
176
     1
290
     0
176
     1
 90
       50
176
     1
 90
       50
176
     1
 90
       50
176
     1
290
     0
176
     1
 90
       50
176
     1
 62
   256
176
     0
 40
1.0
176
     0
 90
        2
176
     1
  1
strokes_ogs.tif
176
     1
290
     0
176
     1
 40
1.0
176
     1
 40
1.0
176
     1
  0
VISUALSTYLE
  5
3E
102
{ACAD_REACTORS
330
29
102
}
330
29
100
AcDbVisualStyle
  2
Shaded
 70
    27
177
     3
291
     0
 70
    58
 90
        2
176
     1
 90
        2
176
     1
 90
        1
176
     1
 90
        2
176
     1
 40
0.6
176
     1
 40
30.0
176
     1
 62
     7
420
 16777215
176
     1
 90
        0
176
     1
 90
        4
176
     1
 62
     7
176
     1
 62
   257
176
     1
 90
        1
176
     1
 90
        1
176
     1
 40
1.0
176
     1
 90
        8
176
     1
 62
   257
176
     1
 40
1.0
176
     1
 90
        1
176
     1
 90
        6
176
     1
 90
        2
176
     1
 62
     8
420
  7895160
176
     1
 90
        3
176
     1
 90
        0
176
     1
 90
        0
176
     1
290
     0
176
     1
 90
        5
176
     1
 40
0.0
176
     1
 90
        0
176
     1
290
     0
176
     1
290
     1
176
     1
290
     1
176
     1
290
     0
176
     1
290
     0
176
     1
290
     0
176
     1
290
     0
176
     1
290
     0
176
     1
290
     0
176
     1
 90
       50
176
     1
 40
0.0
176
     1
 40
1.0
176
     1
 90
        0
176
     1
 62
    18
420
        0
176
     1
 90
       50
176
     1
 90
        3
176
     1
 62
     5
420
      255
176
     1
290
     0
176
     1
 90
       50
176
     1
 90
       50
176
     1
 90
       50
176
     1
290
     0
176
     1
 90
       50
176
     1
 62
   256
176
     0
 40
1.0
176
     0
 90
        2
176
     1
  1
strokes_ogs.tif
176
     1
290
     0
176
     1
 40
1.0
176
     1
 40
1.0
176
     1
  0
VISUALSTYLE
  5
3D
102
{ACAD_REACTORS
330
29
102
}
330
29
100
AcDbVisualStyle
  2
Shaded with edges
 70
    26
177
     3
291
     0
 70
    58
 90
        2
176
     1
 90
        2
176
     1
 90
        1
176
     1
 90
        2
176
     1
 40
0.6
176
     1
 40
30.0
176
     1
 62
     7
420
 16777215
176
     1
 90
        1
176
     1
 90
        2
176
     1
 62
     7
176
     1
 62
   257
176
     1
 90
        2
176
     1
 90
        1
176
     1
 40
1.0
176
     1
 90
        8
176
     1
 62
   257
176
     1
 40
1.0
176
     1
 90
        1
176
     1
 90
        6
176
     1
 90
        2
176
     1
 62
     7
176
     1
 90
        3
176
     1
 90
        0
176
     1
 90
        0
176
     1
290
     0
176
     1
 90
        5
176
     1
 40
0.0
176
     1
 90
        0
176
     1
290
     0
176
     1
290
     1
176
     1
290
     1
176
     1
290
     0
176
     1
290
     0
176
     1
290
     0
176
     1
290
     0
176
     1
290
     0
176
     1
290
     0
176
     1
 90
       50
176
     1
 40
0.0
176
     1
 40
1.0
176
     1
 90
        0
176
     1
 62
    18
420
        0
176
     1
 90
       50
176
     1
 90
        3
176
     1
 62
     5
420
      255
176
     1
290
     0
176
     1
 90
       50
176
     1
 90
       50
176
     1
 90
       50
176
     1
290
     0
176
     1
 90
       50
176
     1
 62
   256
176
     0
 40
1.0
176
     0
 90
        2
176
     1
  1
strokes_ogs.tif
176
     1
290
     0
176
     1
 40
1.0
176
     1
 40
1.0
176
     1
  0
VISUALSTYLE
  5
3A
102
{ACAD_REACTORS
330
29
102
}
330
29
100
AcDbVisualStyle
  2
Shades of Gray
 70
    23
177
     3
291
     0
 70
    58
 90
        2
176
     1
 90
        2
176
     1
 90
        3
176
     1
 90
        0
176
     1
 40
0.6
176
     1
 40
30.0
176
     1
 62
     7
420
 16777215
176
     1
 90
        2
176
     1
 90
        2
176
     1
 62
     7
176
     1
 62
     7
176
     1
 90
        1
176
     1
 90
        1
176
     1
 40
40.0
176
     1
 90
        8
176
     1
 62
     7
176
     1
 40
1.0
176
     1
 90
        1
176
     1
 90
        6
176
     1
 90
        2
176
     1
 62
     7
176
     1
 90
        3
176
     1
 90
        0
176
     1
 90
        0
176
     1
290
     0
176
     1
 90
        1
176
     1
 40
0.0
176
     1
 90
        0
176
     1
290
     0
176
     1
290
     1
176
     1
290
     1
176
     1
290
     0
176
     1
290
     0
176
     1
290
     0
176
     1
290
     0
176
     1
290
     0
176
     1
290
     0
176
     1
 90
       50
176
     1
 40
0.0
176
     1
 40
1.0
176
     1
 90
        0
176
     1
 62
    18
420
        0
176
     1
 90
       50
176
     1
 90
        3
176
     1
 62
     5
420
      255
176
     1
290
     0
176
     1
 90
       50
176
     1
 90
       50
176
     1
 90
       50
176
     1
290
     0
176
     1
 90
       50
176
     1
 62
   256
176
     0
 40
1.0
176
     0
 90
        2
176
     1
  1
strokes_ogs.tif
176
     1
290
     0
176
     1
 40
1.0
176
     1
 40
1.0
176
     1
  0
VISUALSTYLE
  5
3B
102
{ACAD_REACTORS
330
29
102
}
330
29
100
AcDbVisualStyle
  2
Sketchy
 70
    24
177
     3
291
     0
 70
    58
 90
        1
176
     1
 90
        2
176
     1
 90
        2
176
     1
 90
        0
176
     1
 40
0.6
176
     1
 40
30.0
176
     1
 62
     7
420
 16777215
176
     1
 90
        2
176
     1
 90
        2
176
     1
 62
     7
176
     1
 62
     7
176
     1
 90
        1
176
     1
 90
        1
176
     1
 40
40.0
176
     1
 90
       11
176
     1
 62
     7
176
     1
 40
1.0
176
     1
 90
        1
176
     1
 90
        6
176
     1
 90
        2
176
     1
 62
     7
176
     1
 90
        6
176
     1
 90
        0
176
     1
 90
        0
176
     1
290
     0
176
     1
 90
        1
176
     1
 40
0.0
176
     1
 90
        0
176
     1
290
     0
176
     1
290
     1
176
     1
290
     1
176
     1
290
     0
176
     1
290
     0
176
     1
290
     0
176
     1
290
     0
176
     1
290
     0
176
     1
290
     0
176
     1
 90
       50
176
     1
 40
0.0
176
     1
 40
1.0
176
     1
 90
        0
176
     1
 62
    18
420
        0
176
     1
 90
       50
176
     1
 90
        3
176
     1
 62
     5
420
      255
176
     1
290
     0
176
     1
 90
       50
176
     1
 90
       50
176
     1
 90
       50
176
     1
290
     0
176
     1
 90
       50
176
     1
 62
   256
176
     0
 40
1.0
176
     0
 90
        2
176
     1
  1
strokes_ogs.tif
176
     1
290
     0
176
     1
 40
1.0
176
     1
 40
1.0
176
     1
  0
VISUALSTYLE
  5
36
102
{ACAD_REACTORS
330
29
102
}
330
29
100
AcDbVisualStyle
  2
Thicken
 70
    13
177
     3
291
     1
 70
    58
 90
        2
176
     1
 90
        2
176
     1
 90
        0
176
     1
 90
        0
176
     1
 40
0.6
176
     1
 40
30.0
176
     1
 62
     7
420
 16777215
176
     1
 90
        1
176
     1
 90
        4
176
     1
 62
     7
176
     1
 62
   257
176
     1
 90
        1
176
     1
 90
        1
176
     1
 40
1.0
176
     1
 90
       12
176
     1
 62
     7
176
     1
 40
1.0
176
     1
 90
        1
176
     1
 90
        6
176
     1
 90
        2
176
     1
 62
     7
176
     1
 90
        5
176
     1
 90
        0
176
     1
 90
        0
176
     1
290
     0
176
     1
 90
        1
176
     1
 40
0.0
176
     1
 90
        0
176
     1
290
     0
176
     1
290
     1
176
     1
290
     1
176
     1
290
     0
176
     1
290
     0
176
     1
290
     0
176
     1
290
     0
176
     1
290
     0
176
     1
290
     0
176
     1
 90
       50
176
     1
 40
0.0
176
     1
 40
1.0
176
     1
 90
        0
176
     1
 62
    18
420
        0
176
     1
 90
       50
176
     1
 90
        3
176
     1
 62
     5
420
      255
176
     1
290
     0
176
     1
 90
       50
176
     1
 90
       50
176
     1
 90
       50
176
     1
290
     0
176
     1
 90
       50
176
     1
 62
   256
176
     0
 40
1.0
176
     0
 90
        2
176
     1
  1
strokes_ogs.tif
176
     1
290
     0
176
     1
 40
1.0
176
     1
 40
1.0
176
     1
  0
VISUALSTYLE
  5
30
102
{ACAD_REACTORS
330
29
102
}
330
29
100
AcDbVisualStyle
  2
Wireframe
 70
     5
177
     3
291
     0
 70
    58
 90
        0
176
     1
 90
        2
176
     1
 90
        0
176
     1
 90
        0
176
     1
 40
0.6
176
     1
 40
30.0
176
     1
 62
     7
420
 16777215
176
     1
 90
        1
176
     1
 90
        4
176
     1
 62
     7
176
     1
 62
   257
176
     1
 90
        1
176
     1
 90
        1
176
     1
 40
1.0
176
     1
 90
        0
176
     1
 62
   257
176
     1
 40
1.0
176
     1
 90
        1
176
     1
 90
        6
176
     1
 90
        2
176
     1
 62
     7
176
     1
 90
        3
176
     1
 90
        0
176
     1
 90
        0
176
     1
290
     0
176
     1
 90
        1
176
     1
 40
0.0
176
     1
 90
        0
176
     1
290
     0
176
     1
290
     1
176
     1
290
     1
176
     1
290
     0
176
     1
290
     0
176
     1
290
     0
176
     1
290
     0
176
     1
290
     0
176
     1
290
     0
176
     1
 90
       50
176
     1
 40
0.0
176
     1
 40
1.0
176
     1
 90
        0
176
     1
 62
    18
420
        0
176
     1
 90
       50
176
     1
 90
        3
176
     1
 62
     5
420
      255
176
     1
290
     0
176
     1
 90
       50
176
     1
 90
       50
176
     1
 90
       50
176
     1
290
     0
176
     1
 90
       50
176
     1
 62
   256
176
     0
 40
1.0
176
     0
 90
        2
176
     1
  1
strokes_ogs.tif
176
     1
290
     0
176
     1
 40
1.0
176
     1
 40
1.0
176
     1
  0
VISUALSTYLE
  5
3C
102
{ACAD_REACTORS
330
29
102
}
330
29
100
AcDbVisualStyle
  2
X-Ray
 70
    25
177
     3
291
     0
 70
    58
 90
        2
176
     1
 90
        2
176
     1
 90
        1
176
     1
 90
        1
176
     1
 40
0.5
176
     1
 40
30.0
176
     1
 62
     7
420
 16777215
176
     1
 90
        1
176
     1
 90
        0
176
     1
 62
     7
176
     1
 62
   257
176
     1
 90
        1
176
     1
 90
        1
176
     1
 40
1.0
176
     1
 90
        8
176
     1
 62
     7
176
     1
 40
1.0
176
     1
 90
        1
176
     1
 90
        6
176
     1
 90
        2
176
     1
 62
     7
176
     1
 90
        3
176
     1
 90
        0
176
     1
 90
        0
176
     1
290
     0
176
     1
 90
       13
176
     1
 40
0.0
176
     1
 90
        0
176
     1
290
     0
176
     1
290
     1
176
     1
290
     1
176
     1
290
     0
176
     1
290
     0
176
     1
290
     0
176
     1
290
     0
176
     1
290
     0
176
     1
290
     0
176
     1
 90
       50
176
     1
 40
0.0
176
     1
 40
1.0
176
     1
 90
        0
176
     1
 62
    18
420
        0
176
     1
 90
       50
176
     1
 90
        3
176
     1
 62
     5
420
      255
176
     1
290
     0
176
     1
 90
       50
176
     1
 90
       50
176
     1
 90
       50
176
     1
290
     0
176
     1
 90
       50
176
     1
 62
   256
176
     0
 40
1.0
176
     0
 90
        2
176
     1
  1
strokes_ogs.tif
176
     1
290
     0
176
     1
 40
1.0
176
     1
 40
1.0
176
     1
  0
DICTIONARYVAR
  5
80
102
{ACAD_REACTORS
330
7B
102
}
330
7B
100
DictionaryVariables
280
     0
  1
1:1
  0
DICTIONARYVAR
  5
7D
102
{ACAD_REACTORS
330
7B
102
}
330
7B
100
DictionaryVariables
280
     0
  1
STANDARD
  0
DICTIONARYVAR
  5
7C
102
{ACAD_REACTORS
330
7B
102
}
330
7B
100
DictionaryVariables
280
     0
  1
STANDARD
  0
DICTIONARYVAR
  5
7E
102
{ACAD_REACTORS
330
7B
102
}
330
7B
100
DictionaryVariables
280
     0
  1
Imperial24
  0
DICTIONARYVAR
  5
7F
102
{ACAD_REACTORS
330
7B
102
}
330
7B
100
DictionaryVariables
280
     0
  1
Imperial24
  0
XRECORD
  5
5F2
102
{ACAD_REACTORS
330
5EF
102
}
330
5EF
100
AcDbXrecord
280
     1
  1
BUILDING_ID
  1
AM 150 HDIDE
  1
FLOOR_ID
  1
2955
  0
XRECORD
  5
5F0
102
{ACAD_REACTORS
330
5EF
102
}
330
5EF
100
AcDbXrecord
280
     1
  1
-2001140
  1
Mechanical Equipment
  1
-2007000
  1
Connector Element
  0
XRECORD
  5
5F1
102
{ACAD_REACTORS
330
5EF
102
}
330
5EF
100
AcDbXrecord
280
     1
  1
11945
  1
Maintenance
  0
DICTIONARY
  5
1A
330
19
100
AcDbDictionary
280
     1
281
     1
  3
BUMPTILE
360
1C
  3
DIFFUSETILE
360
1B
  3
OPACITYTILE
360
1F
  3
REFLECTIONTILE
360
1E
  3
REFRACTIONTILE
360
20
  3
SPECULARTILE
360
1D
  0
DICTIONARY
  5
12
330
11
100
AcDbDictionary
280
     1
281
     1
  3
BUMPTILE
360
14
  3
DIFFUSETILE
360
13
  3
OPACITYTILE
360
17
  3
REFLECTIONTILE
360
16
  3
REFRACTIONTILE
360
18
  3
SPECULARTILE
360
15
  0
DICTIONARY
  5
22
330
21
100
AcDbDictionary
280
     1
281
     1
  3
BUMPTILE
360
24
  3
DIFFUSETILE
360
23
  3
OPACITYTILE
360
27
  3
REFLECTIONTILE
360
26
  3
REFRACTIONTILE
360
28
  3
SPECULARTILE
360
25
  0
DICTIONARY
  5
5ED
330
5EC
100
AcDbDictionary
280
     1
281
     1
  3
VIZ XML Material Definition
360
5EE
  0
DICTIONARY
  5
5E7
330
5E6
100
AcDbDictionary
280
     1
281
     1
  3
VIZ XML Material Definition
360
5E8
  0
DICTIONARY
  5
5EA
330
5E9
100
AcDbDictionary
280
     1
281
     1
  3
VIZ XML Material Definition
360
5EB
  0
DICTIONARY
  5
5F4
330
65
100
AcDbDictionary
280
     1
281
     1
  3
ACAD_ROUNDTRIP_2008_TABLESTYLE_CELLSTYLEMAP
360
5F5
  0
XRECORD
  5
1C
102
{ACAD_REACTORS
330
1A
102
}
330
1A
100
AcDbXrecord
280
     1
270
     1
271
     1
  0
XRECORD
  5
1B
102
{ACAD_REACTORS
330
1A
102
}
330
1A
100
AcDbXrecord
280
     1
270
     1
271
     1
  0
XRECORD
  5
1F
102
{ACAD_REACTORS
330
1A
102
}
330
1A
100
AcDbXrecord
280
     1
270
     1
271
     1
  0
XRECORD
  5
1E
102
{ACAD_REACTORS
330
1A
102
}
330
1A
100
AcDbXrecord
280
     1
270
     1
271
     1
  0
XRECORD
  5
20
102
{ACAD_REACTORS
330
1A
102
}
330
1A
100
AcDbXrecord
280
     1
270
     1
271
     1
  0
XRECORD
  5
1D
102
{ACAD_REACTORS
330
1A
102
}
330
1A
100
AcDbXrecord
280
     1
270
     1
271
     1
  0
XRECORD
  5
14
102
{ACAD_REACTORS
330
12
102
}
330
12
100
AcDbXrecord
280
     1
270
     1
271
     1
  0
XRECORD
  5
13
102
{ACAD_REACTORS
330
12
102
}
330
12
100
AcDbXrecord
280
     1
270
     1
271
     1
  0
XRECORD
  5
17
102
{ACAD_REACTORS
330
12
102
}
330
12
100
AcDbXrecord
280
     1
270
     1
271
     1
  0
XRECORD
  5
16
102
{ACAD_REACTORS
330
12
102
}
330
12
100
AcDbXrecord
280
     1
270
     1
271
     1
  0
XRECORD
  5
18
102
{ACAD_REACTORS
330
12
102
}
330
12
100
AcDbXrecord
280
     1
270
     1
271
     1
  0
XRECORD
  5
15
102
{ACAD_REACTORS
330
12
102
}
330
12
100
AcDbXrecord
280
     1
270
     1
271
     1
  0
XRECORD
  5
24
102
{ACAD_REACTORS
330
22
102
}
330
22
100
AcDbXrecord
280
     1
270
     1
271
     1
  0
XRECORD
  5
23
102
{ACAD_REACTORS
330
22
102
}
330
22
100
AcDbXrecord
280
     1
270
     1
271
     1
  0
XRECORD
  5
27
102
{ACAD_REACTORS
330
22
102
}
330
22
100
AcDbXrecord
280
     1
270
     1
271
     1
  0
XRECORD
  5
26
102
{ACAD_REACTORS
330
22
102
}
330
22
100
AcDbXrecord
280
     1
270
     1
271
     1
  0
XRECORD
  5
28
102
{ACAD_REACTORS
330
22
102
}
330
22
100
AcDbXrecord
280
     1
270
     1
271
     1
  0
XRECORD
  5
25
102
{ACAD_REACTORS
330
22
102
}
330
22
100
AcDbXrecord
280
     1
270
     1
271
     1
  0
XRECORD
  5
5EE
102
{ACAD_REACTORS
330
5ED
102
}
330
5ED
100
AcDbXrecord
280
     1
300
<Material id="RevitMaterialDefinition252" app="REVIT" Background="0" Backlight="1" Sample="0" Tiling="0">^J<LinearUnits unitType="foot" unitScale="1.0"/>^J<ArchitecturalMaterial name="Maintenece">^J<ArchTemplateParameters name="Maintenece" classid_A="2008828
300
122" classid_B="14503598">^J</ArchTemplateParameters>^J<ArchMatParameters>^J<ArchDiffuseColor>^J<RGBf r="0.8000" g="1.0000" b="1.0000"/>^J</ArchDiffuseColor>^J<ArchIndexOfRefraction>1.5000</ArchIndexOfRefraction>^J<ArchTransparency>0.6200</ArchTransparency>^J<Arc
300
hLuminance>0.0000</ArchLuminance>^J</ArchMatParameters>^J</ArchitecturalMaterial>^J</Material>^J
  0
XRECORD
  5
5E8
102
{ACAD_REACTORS
330
5E7
102
}
330
5E7
100
AcDbXrecord
280
     1
300
<Material id="RevitMaterialDefinition3251" app="REVIT" Background="0" Backlight="1" Sample="0" Tiling="0">^J<LinearUnits unitType="foot" unitScale="1.0"/>^J<ArchitecturalMaterial name="AM Grey">^J<ArchTemplateParameters name="AM Grey" classid_A="2008828122" 
300
classid_B="14503598">^J</ArchTemplateParameters>^J<ArchMatParameters>^J<ArchDiffuseColor>^J<RGBf r="0.2784" g="0.3294" b="0.3176"/>^J</ArchDiffuseColor>^J<ArchIndexOfRefraction>1.5000</ArchIndexOfRefraction>^J<ArchTransparency>0.0000</ArchTransparency>^J<ArchLumi
300
nance>0.0000</ArchLuminance>^J</ArchMatParameters>^J</ArchitecturalMaterial>^J</Material>^J
  0
XRECORD
  5
5EB
102
{ACAD_REACTORS
330
5EA
102
}
330
5EA
100
AcDbXrecord
280
     1
300
<Material id="RevitMaterialDefinition3254" app="REVIT" Background="0" Backlight="1" Sample="0" Tiling="0">^J<LinearUnits unitType="foot" unitScale="1.0"/>^J<ArchitecturalMaterial name="AM White">^J<ArchTemplateParameters name="AM White" classid_A="2008828122
300
" classid_B="14503598">^J</ArchTemplateParameters>^J<ArchMatParameters>^J<ArchDiffuseColor>^J<RGBf r="1.0000" g="1.0000" b="1.0000"/>^J</ArchDiffuseColor>^J<ArchIndexOfRefraction>1.5000</ArchIndexOfRefraction>^J<ArchTransparency>0.0000</ArchTransparency>^J<ArchLu
300
minance>0.0000</ArchLuminance>^J</ArchMatParameters>^J</ArchitecturalMaterial>^J</Material>^J
  0
CELLSTYLEMAP
  5
5F5
102
{ACAD_REACTORS
330
5F4
102
}
330
5F4
100
AcDbCellStyleMap
 90
        3
300
CELLSTYLE
  1
TABLEFORMAT_BEGIN
 90
        5
170
     1
 91
        0
 92
    32768
 62
   257
 93
        1
300
CONTENTFORMAT
  1
CONTENTFORMAT_BEGIN
 90
        0
 91
        0
 92
      512
 93
        0
300

 40
0.0
140
1.0
 94
        5
 62
     0
340
55
144
0.25
309
CONTENTFORMAT_END
171
     0
 94
        0
309
TABLEFORMAT_END
  1
CELLSTYLE_BEGIN
 90
        1
 91
        1
300
_TITLE
309
CELLSTYLE_END
300
CELLSTYLE
  1
TABLEFORMAT_BEGIN
 90
        5
170
     1
 91
        0
 92
        0
 62
   257
 93
        1
300
CONTENTFORMAT
  1
CONTENTFORMAT_BEGIN
 90
        0
 91
        0
 92
      512
 93
        0
300

 40
0.0
140
1.0
 94
        5
 62
     0
340
55
144
0.18
309
CONTENTFORMAT_END
171
     0
 94
        0
309
TABLEFORMAT_END
  1
CELLSTYLE_BEGIN
 90
        2
 91
        1
300
_HEADER
309
CELLSTYLE_END
300
CELLSTYLE
  1
TABLEFORMAT_BEGIN
 90
        5
170
     1
 91
        0
 92
        0
 62
   257
 93
        1
300
CONTENTFORMAT
  1
CONTENTFORMAT_BEGIN
 90
        0
 91
        0
 92
      512
 93
        0
300

 40
0.0
140
1.0
 94
        2
 62
     0
340
55
144
0.18
309
CONTENTFORMAT_END
171
     0
 94
        0
309
TABLEFORMAT_END
  1
CELLSTYLE_BEGIN
 90
        3
 91
        2
300
_DATA
309
CELLSTYLE_END
  0
ENDSEC
  0
EOF
